[tab, I dont know genre...] 2 guitars ... Dream Believer


PDA

View Full Version : [tab, I dont know genre...] 2 guitars ... Dream Believer


gary2damax
05-05-2007, 12:32 PM
Hey! I was bored, so I wrote a song on a program from a cd which came with this guitar learning pack. I dont use the pack much lately, so I used one of the cds.
It's not a fast song, kind of slow. I put it in tab cause I dont know how to actually record it.

Guitar 1:

e|---2--2-----------2--------2--------2-----------------2--2--|
B|---3--2--------3--------2---------0---0------------2-----3--|
G|---2--2-----2--------2----------2-------2-------2--------2--|
D|-0-------0--------0-----------0-----------0--0-----------0--|
A|------------------------------------------------------------|
E|------------------------------------------------------------|

e|---5---5---5---5--2--5---5---5---5----2--|
B|-3---2---3---2----2----2---3---2---3--3--|
G|------------------2-------------------2--|
D|------------------0-------------------0--|
A|-----------------------------------------|
E|-----------------------------------------|

e|-2-----------------2--------2-----------2-----------|
B|----2------------0---0---------2-----------3--------|
G|-------2-------2-------2----------2-----------2-----|
D|----------0--0-----------0-----------0-----------0--|
A|----------------------------------------------------|
E|----------------------------------------------------|

e|-2--2----|
B|-2--3----|
G|-2--2----| 3 times
D|------0--|
A|---------|
E|---------|

e|---2--2--2------------------2--------2-----------2-----------|
B|---3--2-----2-------------0---0---------2-----------3--------|
G|---2--2--------2--------2-------2----------2-----------2-----|
D|-0----------------0--0------------0-----------2-----------0--|
A|-------------------------------------------------------------|
E|-------------------------------------------------------------|

e|-2--2-------2--2-----------------2--2--|
B|-2--3----3--3--2--2--3--2--3--2--2--3--|
G|-2--2----2--------2--------------2--2--|
D|------0--------------------------0--0--|
A|---------------------------------------|
E|---------------------------------------|


Guitar 2:

e|-2--0-5-0-4--2-----2--2--2--------2--2-------------------2--|
B|-3-----------3--3--2--2--0--0--0--2--2----------2-----2--2--|
G|-4-----------2-----2--2--2--------2--2-------------------2--|
D|-4-----------0-----0--0--0--------0--0-------------------0--|
A|-2-------------------------------------------------------0--|
E|-2----------------------------------------------------------|

e|------------------2--2--------2--2--2-----2--4-0-5-0--2-----|
B|-2-----2----------2--2--0--0--0--2--2--3--3-----------3-----|
G|------------------2--2--------2--2--2-----2-----------4-----| 3 times
D|------------------0--0--------0--0--0-----0-----------4-----|
A|------------------------------------------------------2-----|
E|------------------------------------------------------2-----|

e|-2--0-5-0-4--2--2--------2--2--2-----2--4-0-5-0--2----------|
B|-3-----------2--2--0--0--0--2--2--3--3-----------3----------|
G|-4-----------2--2--------2--2--2-----2-----------4----------|
D|-4-----------0--0--------0--0--0-----0-----------4----------|
A|-2-----------------------------------------------2----------|
E|-2-----------------------------------------------2----------|

e|-2--2----------------2--|
B|-3--2----------------3--|
G|-2--2----------------2--|
D|-0--0----------------0--|
A|------------------------|
E|------------------------|

Please Crit and I will crit yours!

arcains_valor
05-06-2007, 08:31 PM
Not bad, not bad. 7.5/10