Into the Shadow


PDA

View Full Version : Into the Shadow


Tarvis24
05-06-2007, 08:34 PM
This is the first song my band made up.
Intro to Into The Shadow
By Ice
Clean X2
e------------------------------------------
B------------------------------------------
G------------------------------------------
D-3-3-3-3-3-3-3-3-2-2-2-2-2-2-2-2-
A-3-3-3-3-3-3-3-3-2-2-2-2-2-2-2-2- (Distortion)
E-1-1-1-1-1-1-1-1-0-0-0-0-0-0-0-0-(slide up to 12 then down on 2nd time)
heavy distortion X2
e---------------------------------------
B---------------------------------------
G---------------------------------------
D-3-3-------3-3------2-2-------2-2------
A-3-3-3bu-3-3-3bu-2-2-2bu-2-2-2bu
E-1-1-------1-1-------0-0------0-0------
PM___ PM___ PM___ PM___
Intro to solo
e-----------------------------------------
B-----------------------------------------
G-7-5-3---------------------------------
D-7-5-3----5----222222222222222
A-5-3-1----5----222222222222222
E------------3----000000000000000

I'm still working on making up the solo and tabbing it but soon I'll have the whole song tabbed out.

thrash64
05-06-2007, 08:39 PM
looks like groove metal, but who would know because you don't have bpm listed!!!! nobody can know what this actually sounds like without a recording, some timing listed, or without a guitar pro or powertab file.

Dimebag Dave
05-06-2007, 08:46 PM
Looks like a punk song.