Metallica-type riff


PDA

View Full Version : Metallica-type riff


Colton165
05-12-2007, 11:58 AM
Tell me how this is. idk how to record or even play a .gp4 file, so, please just play it

Standard Tuning (EADGBE)

E]-----------------------------------------------] X4
B]-----------------------------------------------]
G]----------3--------4--------5---4--1--2----]
D]----------3--------4--------3---2--3--2----]
A]----------1--------2--------3---2--3--0----]
E]--0-1-2---0-1-2---0-1-2------------------]
PM.......... ......... ........

After 2nd time, Gtr II Comes In w/ wah wah

E]---------------------------------------------------------]
B]---------------------------------------------------------]
G]---(8)-8p6---6----------------------------------------]
D]-------------8---8p7p6----6--------------------------]
A]---------------------------8-----8p7p6--4------------]
E]-----------------------------------------------4--(7)---]


Solo Rhythm

E]-----------------------------------------------------------------------------------------------------
B]-----------------------------------------------------------------------------------------------------
G]-----------------------------------------------------------------------------------------------------
D]-----------------------------------------------------------------------------------------------------
A]-------------------------------------------------------2---------------------------------------------
E]--0000-2--0000-2--0000-2--0000-2--0000-----0000-2--0000-2--0000-2--0000-2--

E]-------------------------------------------------------------------------------------------------------
B]-------------------------------------------------------------------------------------------------------
G]-------------------------------------------------------------------------------------------------------
D]-------------------------------------------------------------------------------------------------------
A]----------1-----------------------------------------------------(2)~~-------(1)~~0-3-2----3-2-
E]-0000------0000-2--0000-2--0000-2--0000-2-0000---------0000---------0-1-0-0-1-0-

E]-----------------------------------------------]
B]-----------------------------------------------]
G]-----------------------------------------------]
D]-----------------------------------------------]
A]----3-2----3-2-----3~~--------------------]
E]-0-1-0--0-1-0--0-1~~--------------------]


Solo

E]-------19p15--19p15--19p15--19p15---19p15--19p15--19p15--19p15--19p15-----
B]--/17--------17-------17-------17-------17--------17------17-------17-------17-------17--
G]-----------------------------------------------------------------------------------------------------
D]-----------------------------------------------------------------------------------------------------
A]-----------------------------------------------------------------------------------------------------
E]-----------------------------------------------------------------------------------------------------

E]------17p14---17p14---17p14---17p14---17p14---17p14---17p14---17p14------
B]--15---------15--------15-------15--------15--------15--------15--------15--------15--
G]-------------------------------------------------------------------------------------------------
D]-------------------------------------------------------------------------------------------------
A]-------------------------------------------------------------------------------------------------
E]-------------------------------------------------------------------------------------------------

E]------15p12---15p12---15p12---15p12---15p12---15p12---15p12---15p12---15p12--
B]--13---------13--------13--------13--------13-------13--------13--------13--------13-------13
G]--------------------------------------------------------------------------------------------------------
D]--------------------------------------------------------------------------------------------------------
A]--------------------------------------------------------------------------------------------------------
E]--------------------------------------------------------------------------------------------------------

E]------14h17---14h17---14h17---14h17-------17p15p14-17p15p14-18p16p15-
B]--15---------15--------15-------15---------15--------------------------------------------
G]-----------------------------------------------------------------------------------------
D]-----------------------------------------------------------------------------------------
A]-----------------------------------------------------------------------------------------
E]-----------------------------------------------------------------------------------------

E]--18p16p15-19p17p16-19p17p16-16t20p19p17p16-16t20p19p17p16--
B]------------------------------------------------------------------------------------------
G]------------------------------------------------------------------------------------------
D]------------------------------------------------------------------------------------------
A]------------------------------------------------------------------------------------------
E]------------------------------------------------------------------------------------------

E]-16t20p19p17p16-16t20p19p17p16-16t20p19p17p16-16t20p19p17p16-
B]--------------------------------------------------------------------------------------------
G]--------------------------------------------------------------------------------------------
D]--------------------------------------------------------------------------------------------
A]--------------------------------------------------------------------------------------------
E]--------------------------------------------------------------------------------------------

E]-16t20p19p17p16--16b18rb~~---23b26rb~~~-----------------------]
B]----------------------------------------------------------------------------------]
G]----------------------------------------------------------------------------------]
D]----------------------------------------------------------------------------------]
A]----------------------------------------------------------------------------------]
E]----------------------------------------------------------------------------------]


Tell me what yall think!

sTx
05-12-2007, 12:07 PM
A freakin' lot of legato in the solo, eh?

Lendorav
05-12-2007, 12:16 PM
It would really help to understand this if you'd give us the timing.

Colton165
05-12-2007, 12:33 PM
i dont have a metronome but ill guess the timing for intro is about 160bpm (?), and solo is like 220-245bpm i guess

Colton165
05-12-2007, 12:34 PM
also, pm the "0's" on the low E on the solo rhythm

Rune Playaz
05-12-2007, 12:37 PM
i would love to hear this in midi/pt looks interesting, legato is awesome :-)

check mine out :)

http://www.ultimate-guitar.com/forum/showthread.php?t=584887

Colton165
05-12-2007, 12:38 PM
is the power tab software free? if so, i could probably power tab it within a week or so

Colton165
05-12-2007, 12:40 PM
i checked it out. its an okay riff, keep working on it

Colton165
05-12-2007, 12:42 PM
well, i like legato. all my favorite bands use it, and i want a similar feel. its not a rip-off of metallica, is it?

Colton165
05-12-2007, 12:45 PM
thse ()'s in the fill are pinch harmonics, not tied notes. I just wanted to clear that up. Tied notes come AFTER a note is struck anyway, so i dont know why anyone would think that, but just wanted to make sure.

Lendorav
05-12-2007, 12:51 PM
Actually I meant like eighth notes, quarter notes? I was thinking of transcribing it to GP for fun.

Colton165
05-12-2007, 01:48 PM
Actually I meant like eighth notes, quarter notes? I was thinking of transcribing it to GP for fun.

oh, idk much of that. dont gp or pt it unless you give me ALL the credit for writing, creating it, etc.

sTx
05-12-2007, 01:57 PM
Could you, atleast, edit it so it's in [code] format?

ch715dallat
05-12-2007, 06:20 PM
oh, idk much of that. dont gp or pt it unless you give me ALL the credit for writing, creating it, etc.

he means for you, hes hardly just goin to steal it and sell it or somethin besides its nothing special anyways and teh solos just 2 licks repeated, im sure he could come up with something if he wants :rolleyes:

also dont triple post :peace:

Lendorav
05-12-2007, 08:16 PM
also dont triple post :peace:

Actually he posted 4 times in a row :p:

And no I'm not planning to steal your song :haha :haha :haha I just want to know how it sounds + transcribing stuff to GP and messing around with them is fun.

Colton165
05-18-2007, 05:56 PM
he means for you, hes hardly just goin to steal it and sell it or somethin besides its nothing special anyways and teh solos just 2 licks repeated, im sure he could come up with something if he wants :rolleyes:

also dont triple post :peace:

hey, this is my 1st riff, so dont be an ass. i can triple, quadruple post if i want to, mother $$$$er. if i wanted your opinion on if its "just two licks repeated" i would have asked. i asked if this was good for MY FIRST $$$$ING SONG. Ok? Im 14 years old. youre probably a 25-year old loser whos an Irish bastard. have a nice day, asshole. thank you. $$$$ off

ch715dallat
05-18-2007, 08:35 PM
hey, this is my 1st riff, so dont be an ass. i can triple, quadruple post if i want to, mother $$$$er. if i wanted your opinion on if its "just two licks repeated" i would have asked. i asked if this was good for MY FIRST $$$$ING SONG. Ok? Im 14 years old. youre probably a 25-year old loser whos an Irish bastard. have a nice day, asshole. thank you. $$$$ off

actually you cant double triple or quadruple post if you want as it is th erules of the forum and if you continue to do so you will be reported then banned, also dont call me names like that as it is very immature and will also lead to a banning actually just for all that abuse

*reported*

edit: it is not an opinion that it is 2 licks it is a simple fact that it is just 2 lick unless you cannot count :rolleyes: also thats some pretty vile language for a 14 yr old, do you feel like the man coming on here and talking crap to your elders? :no:

FatKidsOnMopeds</3
05-18-2007, 08:42 PM
hey, this is my 1st riff, so dont be an ass. i can triple, quadruple post if i want to, mother $$$$er. if i wanted your opinion on if its "just two licks repeated" i would have asked. i asked if this was good for MY FIRST $$$$ING SONG. Ok? Im 14 years old. youre probably a 25-year old loser whos an Irish bastard. have a nice day, asshole. thank you. $$$$ off

I'm giving you a warning for that. Stop being a jerk or it'll result in a banning.

Colton165
06-02-2007, 10:28 PM
This is colton165's dad. I would like to apologize for the crude language on behalf of my son. Once he has decided to become a little more responsible in using these forums to try to better his guitar skills and not talk trash, You may be hearing from him again. Thank you and once again I apologize.