Stadium Arcadium tab


PDA

View Full Version : Stadium Arcadium tab


sukdrit
05-12-2007, 01:50 PM
Name: Sukrit Gupta
E mail:sukdrit@gmail.com
sukritthesukhoy31@rediffmail.com



Following, is how the song opens:

C#m A
B A

This is played for quite sometime when the following comes in:

e---------------------------------------------------------------------------
b--------------------------------------7--8--8--8-------------------------
g------------------------4s6--6--9----------------------------------------
d---------------------------------------------------------------------------
a---------------------------------------------------------------------------
e---------------------------------------------------------------------------


e---------------------------------------------------------------------------
b--------------------------------------7--8--8--8-------------------------
g------------------------4s6--6--9----------------------------------------
d---------------------------------------------------------------------------
a---------------------------------------------------------------------------
e---------------------------------------------------------------------------


e---------------------------------------------------------------------------
b--------------------------------------7--8--8--8-------------------------
g------------------------4s6--6--9----------------------------------------
d---------------------------------------------------------------------------
a---------------------------------------------------------------------------
e---------------------------------------------------------------------------

e---------------------------------------------------------------------------
b---------------------------------------------------------------------------
g------------------------4s6--6--5----45--6--------------------------
d---------------------------------------------------------------------------
a---------------------------------------------------------------------------
e---------------------------------------------------------------------------

the rest of the song goes on like this, till the following solo comes in:

e---------------------------------------------------------------------------
b---------------------------------------------------------------------------
g------------------------4s6--6--5----45--6--------------------------
d---------------------------------------------------------------------------
a---------------------------------------------------------------------------
e---------------------------------------------------------------------------


e---------------------------------------------------------------------------
b---------------------------------------------------------------------------
g------------------------4s6--6--5----45--6--------------------------
d---------------------------------------------------------------------------
a---------------------------------------------------------------------------
e---------------------------------------------------------------------------


e---------------------------------------------------------------------------
b-----------7\-5-7\-------------------------7-8\-7-5-9-12-12-14-14--
g5-5-6-----------6--5-6-5-65-5-6--------------------------------
a---------------------------------------------------------------------------
e---------------------------------------------------------------------------


e---------------------------------------------------------------------------
b14\14\14\14\-12-9-7-5--5-7----5-7\--5-7----5-7\---------------
g----------------------------------6-------------6----------------------
d---------------------------------------------------------------------------
a---------------------------------------------------------------------------
e---------------------------------------------------------------------------


e-----------9-12-14-----9-12-9-12-9-12-9-12\------------------------
b---------------------------------------------------------------------------
g-------6------------------------------------------------------------------
d---------------------------------------------------------------------------
a---------------------------------------------------------------------------
e---------------------------------------------------------------------------


e-- 7-9-12-14\----12-14\----12-14-12-14-12-14--9-12-9-12-9-12
b--9--------------9--------------------------------------------------------
g---------------------------------------------------------------------------
d---------------------------------------------------------------------------
a---------------------------------------------------------------------------
e---------------------------------------------------------------------------


e-9-7-5--12-9-9-7-7---12-12-9\---9-9-7\-----5-----------------------
b------------------------------------------------------7-7-7---------------
g-------------------------------------------------------------5-6-5--------
d---------------------------------------------------------------------------
a---------------------------------------------------------------------------
e---------------------------------------------------------------------------

s=slide
\=tremolo (up)

The solo played at the end may have some minute errors, otherwise it sounds alright.
Do mail me ur suggestions.

gallagher2006
05-12-2007, 01:56 PM
Try "Tab Talk"

buckethead_jr
05-12-2007, 02:02 PM
Or just try to submit it to the archive.

EDIT: There are too many tabs for it, never mind.