emily by from first to last


PDA

View Full Version : emily by from first to last


just.in.case
05-25-2007, 07:48 PM
tuning:standard
guitars: 2 (lead and rythym)

k, so this is my first tab. I am considered a newb at the moment, so go easy on this tab. It's a great song, pretty easy, and fun to play once you know how. Enjoy.


Guitar 1 intro
e|-------------------------------------------------------------------
B|-----------0--------------0-------------0---------------0--------
G|-------------0--------------0-------------0--------------0-------
D|-------5--------------9-------------7--------------5-------------
A|---3-3---3--------7-7---7-------5-5---5-------3--3-----------
E|-------------------------------------------------------------------


Guitar 2 intro
e|----------------------------------------------------------------------
B|-----------0--------------0-------------0---------------0----*12--
G|-------------0--------------0-------------0--------------0---*12--
D|-------5--------------9-------------7--------------5---------------
A|---3-3---3--------7-7---7-------5-5---5-------3--3--------------
E|----------------------------------------------------------------------


Guitar 1 intro solo
e|--------------------------------------------------------------------------------------------
B|--------------------------------------------------------------------------------------------
G|--7-5/4/5/4-------7-----7------7/9-7--5-4----7-5-4-5-4-2-4-2------7-----7-----7/9
D----------------4-5----4-5----4-5------------5-------------------4-5---4-5---4-5------
A|--------------------------------------------------------------------------------------------
E|--------------------------------------------------------------------------------------------

e|--------------------------------------------------------------------------
B|-----8-8-8-7-7-7-8-8-10-10-10-8-8-8-7-7-------------------------
G|-7-----------------------------------------------------------------------
D|-------------------------------------------------------------------------
A|-------------------------------------------------------------------------
E|-------------------------------------------------------------------------


guitar 1 verse
e|------0----0----0--------------------------------------
B|-----0----0----0--------------------------------------
G|-----0----0----0-------------------------------------
D|---5-5--9-9--7-7------------------------------------
A|---3-3--7-7--5-5-------------------------------------
E|---------------------------------------------------------


Guitar 1 and 2 chorus
e| ------------------------------------------------------------------------------------------
B| ------------------------------------------------------------------------------------------
G| -------------------------------------------------------------------------------------------
D| 9- 7- 12- 12- 12- 12- 9- 7- 5- 5- 5- 5- 5- 9- 7- 12- 12- 12- 12- 9 -7 -5 -5- 5 -5
A| 7- 5- 10- 10- 10- 10- 7- 5- 3- 3- 3- 3- 3- 7- 5- 10- 10- 10- 10- 7- 5- 3- 3- 3- 4
E| --------------------------------------------------------------------------------------------

| / slide up
| \ slide down
| h hammer-on
| p pull-off
| ~ vibrato
| * harmonic
| x Mute note


as you can see, i didn't go into the strumming patterns of the verse and the chorus. Listen to the song, you should be able to figure it out.
N.B** during the verse, guitar 2 is playing the intro without the harmonics.

zackyG
05-25-2007, 11:37 PM
its good if your considered a newb"..........the intro for guitar 2 is dif. but im not sure if u want to tell me how it goes so i wont unless u ask.........the solo thing is really close but u didnt have some detail right like u do hammer on/pull offs instead of slide and ain some places u need to slide or whatever.....oh on the solo the last part where it gets faster u got the right idea but its wrong...........and the chorus is wrong.........and wheres guitar 2 verse?


but all in all good job for a noob

HumanitysDeath
05-26-2007, 02:49 AM
Well. That's fine and dandy.

But this section of the forum is for tabs of songs that you've written.
Not tabs of songs you've interpreted.

just.in.case
05-29-2007, 06:57 PM
then where do i?