why did ug rejected my tab?


PDA

View Full Version : why did ug rejected my tab?


spearfear21
06-11-2007, 04:35 AM
i have registered 3 accounts but the tabs are rejected, here's my new
acct. but still my tab is rejected? :confused:
im very sure my tab is 100% accurate? why accept the non accurate ones?
my tab is ambisyoso by kamikazee, (bass tab)
im very upset when i know my tab is rejected, i worked a lot to tab it!!!

============================================
to prove it heres the music vid:
http://www.youtube.com/watch?v=wzIcfzKtY4Q
============================================
and my tab:

----------------------------------------------------------------------------
Ambisyoso-Kamikazee
----------------------------------------------------------------------------
Tabbed by: mArk wAntwAr
E-mail (friendster): spearfear21@yahoo.com
wantwar_band@yahoo.com

This tab is 100% accurate, and ear-transcribed.

Standard tuning

Intro part 1:
G|-11--------14------11-------12------14--------|
D|-12-(8x)---12-(3x)-12-(1x)--12-(8x)-12-(3x)---|
A|----------------------------------------------|
E|----------------------------------------------|

G|-11--------14------11-------12----------------|
D|-12-(8x)---12-(3x)-12-(1x)--12-(6x)-----------|
A|----------------------------------------------|
E|----------------------------------------------|


Intro part 2:
G|-------------------------------|
D|--4-4h54-----------------------|
A|-5-5----75424s520--------------|
E|-----------------22222333333---|

Verse 1:
(Ang sarap sanang magkaroon...)
G|-------------------------------|
D|--4-4h54-----------------------|
A|-5-5----75424s520--------------|
E|-----------------22222333333---|

G|-------------------------------|
D|--4-4h54-----------------------|
A|-5-5----75424s520--------------|
E|-----------------222223335320--|

(magic wallet...)
G|----------------------------------|
D|----------------------------------|
A|-5555555555555555-----------------| 2x
E|-----------------2222222233333333-|

Chorus: (libre lang mangarap...)
G|----------------------------------|
D|----------------------------------|
A|-5555555555555555-----------------|
E|-----------------222222233333333--|

G|--------------------------------------|
D|--------------------------------------|
A|-5555555555555555---------------------|
E|-----------------22222232323532(hold)-|

Verse 2: (Ang sarap sanang magkaroon...)
G|------------------------------|
D|--4-54------------------------|
A|-5-5--75424-540---------------| 2x
E|---------------22222333333----|

G|----------------------------------|
D|----------------------------------|
A|-5555555555555555-----------------|
E|-----------------222222233333333--|

Chorus: (libre lang mangarap...)
G|----------------------------------|
D|----------------------------------|
A|-5555555555555555-----------------| 3x
E|-----------------222222233333333--|

G|--------------------------------------|
D|--------------------------------------|
A|-5555555555555555---------------------|
E|-----------------22222232323532(hold)-|

Bridge:
G|------------------------------------|
D|------------------------------------|
A|---------55555555-------------------|
E|-55555555--------3333333333333333---|

G|-----------------------------------|
D|-----------------------------------|
A|---------55555555-----2255----2255-|
E|-55555555---------3355----3355-----|

(Di tulad sa tindahan...)
G|------------------------------------|
D|------------------------------------|
A|---------55555555-------------------|
E|-55555555--------3333333333333333---|

(Managinip at mangarap...)
G|---------------------------------------|
D|---------------------------------------|
A|---------55555555----------------------|
E|-55555555--------333333333333333(hold)-|

(Guitar Part) (Guitar Part)
G|--------------------------------------------------------------|
D|--------------------------------------------------------------|
A|--------------------------------------------------------------|
E|------------222222333333(hold)-------------222222333333(hold)-|

(Guitar part) (Guitar Part)
G|---------------------------------------------------------------------|
D|---------------------------------------------------------------------|
A|---------------------------------------------------------------------|
E|-----------222222333333(hold)--------------222222333333-222222333333-|

G|----------------------------------------------------------|
D|----------------------------------------------------------|
A|----------------------------------------------------------|
E|-222222333333-223232(hold)-223232(hold)-223232-5555555----|

Chorus: (libre lang mangarap...)
G|----------------------------------|
D|----------------------------------|
A|-5555555555555555-----------------| 3x
E|-----------------222222233333333--|

G|--------------------------------------|
D|--------------------------------------|
A|-5555555555555555---------------------|
E|-----------------2222223(hold)--------|

Farether
06-11-2007, 04:46 AM
because it looks pretty simulair to the other tabs

Angels Fighter
06-11-2007, 04:46 AM
dude you are about to be banned for haveing multiple accounts so it doesnt matter

Stevie B
06-11-2007, 04:48 AM
Dude you made multiple accounts so you could get a tab up? well you can expect to be banned as making multiple accounts is against the rules. Also that was kinda dumb, if it gets rejected once its not gonna get accept later on. And ive never heard of that band before. What country are they from? those lyrics look weird..

mcb_69
06-11-2007, 05:16 AM
(magic wallet...) haha its the only bit that makes sence

HaKattack
06-11-2007, 05:21 AM
lol

*reported*