The Pentatonic Scale Not Again


PDA

View Full Version : The Pentatonic Scale Not Again


virtualetters
07-13-2007, 05:13 PM
I apologize for not reading through the forums here first, and I have already submitted this as a contribution. Nonetheless, I recognize now that it should be posted in this forum prior to submitting. Without further ado:




The pentatonic scale, or bread and butter of all things rock, may very well be the most reliable set of intervals ever devised. Yes, they are essentially only diatonic scales with the second and sixth note removed, but pentatonic scales are really so much more. It’s enough that one can take any diatonic scale and simplify it into a less complex five note scale, but on top of that, it’s hard to go wrong when improvising with a pentatonic scale. That said, getting stuck in a rut playing clichéd and tired pentatonic licks is about as easy as it is common.

How then, does one go about making the most of those five notes (or intervals for those nitpickers)? What about creating original sounding licks? Sounding downright weird and wild? It’s hardly as simple as one answer, but don’t fear. After all, we’re only dealing with your favourite five note scales.

The Blues Scale

For the most part, the exclusive scale of blues is the aptly titled “blues scale” (Fig 1). This is pretty much a minor pentatonic scale, but with a flattened fifth. Generally, this added note is just treated as a chromatic passing tone. Some players do use it quite prominently and others avoid it aside from during turnarounds. The blues scale is not by any means restricted to blues, nor must the root always be minor. It’s not uncommon for guitarists to land on a relative major root of the blues scale (Fig 2). In this instance, the scale pattern remains exactly the same, but the root is changed to the relative major (or second note of the minor pentatonic scale). The flattened fifth becomes a minor third (flattened third) in this case. Many country players favour this scale in their soloing endeavours.

Neither of these scales in themselves will aid in creating terribly imaginative licks, as both are relatively popular and well used, but an extra note may prove to be awfully useful in many instances.

Fig 1
Root note is bolded
e----------------------------3-6---|
B------------------------3-6-------|
G-----------------3-5-6------------|
D-------------3-5------------------|
A-------3-4-5----------------------|
E---3-6----------------------------|
G Blues Scale (in third position)



Fig 2
Root note is bolded
e-------------------------0-3------|
B---------------------0-3----------|
G---------------0-2-3--------------|
D-----------0-2--------------------|
A-----0-1-2------------------------|
E---3------------------------------|

G (Major) Blues scale (in open position)


Major/Minor Pentatonic Blending

If you’re playing a pentatonic solo over a progression that stays for any length of time on a chord or interval that lacks major or minor affiliation, such as a fifth or seventh (minus third) chord, you have an excellent opportunity to unleash several new notes ,as well as a wide array of fresh melodies. By blending the major and minor pentatonic scales over the appropriate chord, one has plenty of space to create familiar sounds, not to mention more complex ones, all while using the same familiar scale patterns of the major and minor pentatonic scales.

Often used by the likes of Eric Clapton and Johnny Winter, major/minor pentatonic blending generally lends itself to a somewhat harmonically ambiguous but still bluesy sound.


Fig 3
A5
e------------5—8p7p5h7-----------------|
B----------5-----------5-7-5h8-8b10~~--|
G------5h6-----------------------------|
D--------------------------------------|
A--------------------------------------|
E--------------------------------------|
Mixture of A Minor and A Major Pentatonic




Fig 4
E7(with no third)
e------------12-—-12----12----12----------------|
B--------------12----11----10----9--------------|
G-----11b13~------------------------11b10-9~~---|
D-----------------------------------------------|
A-----------------------------------------------|
E-----------------------------------------------|
E Minor and E Major



Wide Intervals

Another popular technique to inject some life into the 5 notes is the use of large intervals. Since the notes are usually played one after another, or with relatively close intervals, larger intervals can help a fair bit in the creation of fresh sounds. String skipping (Fig 5), and tapping (Fig 6) are the most common methods of implementing this, but merely keeping the premise in mind when improvising is enough to help add some wide interval licks to your playing.


Fig 5
e------------—---11~--------|
B-----------------11~-------|
G----------9--------9~------|
D---------------------------|
A-----9h11----11------------|
E---------------------------|


Fig 6
T T T
e------12p3h5----—---------------|
B------------13p5h8--------------|
G-------------------12p2/5-------|
D--------------------------7~~---|
A--------------------------------|
E--------------------------------|


Playing Out of the Box

I’d hazard a guess that at least seventy percent of all pentatonic playing takes place in a single box pattern, and you know the one! However, the scale has other patterns all over the neck of the guitar. Try playing several simple licks in various positions on the neck (Fig 7), or use the foreign patterns to aid in creating new licks. If you consciously make an effort to venture out of the ordinary box pattern and take steps to on a regular basis the other pentatonic patterns will soon be almost as familiar as the standard box. You’ll likely come up with some staple licks that are unlike those that you tend to fall back on when playing in the home position.


Fig 7
B Minor Pentatonic
e------------—-----|-----5--------------|
B--------10--------|-5b7---5p3----------|
G---9b11----9p7----|-----------4~-------|
D---------------9~-|--------------------|
A------------------|--------------------|
E------------------|--------------------|
7th Position 3rd position


The Chromatic Approach

A favourite technique of Dimebag Darrell, adding chromatic notes to pentatonic patterns is a sure-fire method of creating many new, even exotic melodies. However, when going chromatic, there are some things to keep in mind; always remember where the root is, and try to avoid more complex chord progressions unless you’re prepared to a)run into potentially shady harmonic territory, or b)keep your music theory brain pumping. Playing with chromatic notes in this manner is also an excellent way to train your melodic ear as, unlike pentatonic scales where it’s easy to allow your mind to ease into autopilot, many of the notes will sound dissonant, or “wrong” over a given chord. Still, it may be beneficial to a song or solo to utilize challenging sounds, and chromatic improvisation will undoubtedly aid in teaching one where those beneficial times might be. Chromatic tones are commonly used in jazz guitar, though most often as “passing tones”, in that a run never concludes on a note outside of the base scale.

Another chromatic approach is to follow the chord progression. For example, in Figure 8, the lick starts in C Ionian, over a C major chord, then as the progression moves to D minor, the key center of the lick changes to D Phrygian, and finally the progression ends on an E5, and the lick resolves on a bend from D to E. In Figure 9, a lick follows the C5-E5 chord progression by using first C Ionian over the C5, and E Blues over the E5.


C Dm E5
Fig 8
e---15-13-12-13-12-10----—-------------------|
B---------------------10-11-13-11-13-15b17~~-|
G--------------------------------------------|
D--------------------------------------------|
A--------------------------------------------|
E--------------------------------------------|
|-C Ionian------||-D Phrygian--||E Minor Pentatonic|


C5 E5
Fig 9
e------------—----------------------------|
B-----------------------------------------|
G----14h12h10-----------------------------|
D------------14h12h10---------------------|
A---------------------10h11h12h11h10------|
E------------------------------------12~--|
|-C Major-------||E Blues Scale----|

Conclusion

All of these afore mentioned techniques will surely aid in creating imaginative sounds, but one should keep in mind that a strong ear, and knowing what sound you’re trying to achieve are just as important in avoiding clichéd licks and constructing the right solo or lick for the given circumstance.


Copyright 2007



Thank you in advance for any suggestions or comments.

Dr. No
07-13-2007, 10:14 PM
Great lesson dude.