Pentatonic Scale Practice


PDA

View Full Version : Pentatonic Scale Practice


Demons&Wizards
08-16-2007, 11:32 AM
I've just finished this in Guitar Pro, and was wondering if you would tell me what you think, i can upload it in text if you prefer. Thanks
Guitar Pro 5 and 4 versions in the file.

guitarkp
08-16-2007, 11:43 AM
could you upload this as text please, my guitar pro has gone all screwy

Demons&Wizards
08-16-2007, 12:47 PM
Pentatonic Scale Practice

Practice at your own pace!


There are 5 shapes (boxes) to a pentatonic scale, and below are the 5 shapes for the E Minor Pentatonic.

E||----------------------3-5-|----------------------5-7-|---------------------------7-10-|
B||------------------3-5-----|------------------5-8-----|---------------------8-10------|
G||--------------2-4---------|--------------4-7---------|-----------------7-9-----------|
D||----------2-5-------------|----------5-7-------------|-------------7-9---------------|
A||------2-5-----------------|------5-7-----------------|-------7-10-------------------|
E||--3-5---------------------|--5-7---------------------|--7-10------------------------|

------------------------------10-12-|--------------------------------12-15-|
------------------------10-12-------|--------------------------12-15-------|
-------------------9-12-------------|--------------------12-14-------------|
--------------9-12------------------|--------------12-14-------------------|
--------10-12-----------------------|--------12-14-------------------------|
--10-12-----------------------------|--12-15-------------------------------|

You can transpose the boxes depending on what minor pentatonic scale you are using, as described later on.

Practicing with Pentatonics.

Playing in threes

This is a good technique for warming up, and buliding up finger strength, as well as learning the scales.
Here every 3rd note in a beat leads to a new string:

---------------------------|--------------3---3-5--|
---------------------------|------3---3-5---5------|
-----------------------2---|--2-4---4--------------|
---------------2---2-5---5-|-----------------------|
-------2---2-5---5---------|-----------------------|
--3-5---5------------------|-----------------------|

Now in the second posistion:

---------------------------|--------------5---5-7--|
---------------------------|------5---5-8---8------|
-----------------------4---|--4-7---7--------------|
---------------5---5-7---7-|-----------------------|
-------5---5-7---7---------|-----------------------|
--5-7---7------------------|-----------------------|


'Linear' Scales

This is a good method for learning the posistions of the notes in the scale, in this case EGABD, also helping you learning the notes on the fretboard. I have read that Joe Satriani uses this method to learn scales.

Here, play all the shapes one string at a time

------------------------------|---------------------------|--------3-5-7-10-12---|
------------------------------|---------------------3-5-8-|--10-12---------------|
------------------------------|----------2-4-7-9-12-------|----------------------|
----------------------------2-|--5-7-9-12-----------------|----------------------|
----------------2-5-7-10-12---|---------------------------|----------------------|
--0-3-5-7-10-12---------------|---------------------------|----------------------|


Using all the shapes

When using these scales, you don't want to get stuck just using one shape all the time. So here's an exersice, which should help you use all the shapes. It should also help you in moving about the fretboard.

----|--15-12---------------------------|------------------------10-12-|----|
----|--------15-12---------------------|------------------10-12-------|----|
----|--------------12-9----------------|--------------7-9-------------|----|
----|-------------------12-9-----------|----------7-9-----------------|----|
----|------------------------10-7------|------5-7---------------------|----|
----|-----------------------------10-7-|--5-7-------------------------|----|

Start off slow, and once you've memorised all the patterns, you should be able to fly through this lick, and come up with your own runs. I use this idea of two strings, then change shape, two strings and change again with good effect.

Transposing the Scale
Here is what nobody told me when i was starting out:
These patterns/shapes/boxes, are the same for whatever minor pentatonic scale you are playing, they stay in the same order, just at different positions on the fretboard. Here's how I work it out:
Find the root note in the pattern, in this case E, and move it to whatever key you are in. So if I'm playing in D, i move the root note up to D.

Now D is two frets up from E, so shift the shapes up 2 frets, and you have D Minor Pentatonic!
Using the last position:
--------------------------------12-15--
--------------------------12-15-
--------------------12-14-------
--------------12-14-------------
--------12-14-------------------
--12-15-------------------------

Becomes:
--------------------------------10-13
--------------------------10-13---
--------------------10-12---------
--------------10-12---------------
--------10-12---------------------
--10-13---------------------------

Thanks for waiting, it took me ages to line up all the tab correctly! lol
Hope the lesson is of use, is it up to UG standard. Can i post it on the main site do you think?
Any questions please ask.

SpartaX
09-05-2007, 02:01 PM
I'm definetly no expert on this but if the stuff in this is true please put it up it looks really useful

Seth Shadows
09-05-2007, 03:33 PM
wellllllllllllllllll done :cheers:

mdwallin
09-23-2007, 01:07 AM
useful to me :P

biohazardist
09-23-2007, 03:33 PM
Thanks alot man, that really helped!!!

biohazardist
09-23-2007, 03:39 PM
Only one thing don't understand. In the first example( e minor pentatonic). the root note is not E. So why would that scale be E? Also you said you can change the scale by what ever root note it is so, in the first example(e minor pentatonic) why dosn't the scale change when the shape changes? For example in box one you start off on the third fret, and in the secon you are on the fifth. So why dosn't the scale change or does it?

Maybe i'm just a idiot lol but could someone help me out here.

Thanks