favorite Blues or Jazz soloing phrases.


PDA

View Full Version : favorite Blues or Jazz soloing phrases.


Mr.Cuddles
03-12-2008, 11:40 AM
well im bored and was improvising and realized that a few particualar phrases kept coming up,( my favorites.)
ad thought what are ug's favorite blues phrases when they solo?
besides who can't increase theire soloing vocabulary?

heres one of mine
(a rockabilly brian setzer lick i like to blues up)

e|--------8------------------------------------------------------
b|-7s8----8-----------------------------------------------------
g|---------------10(1/4)---8-----------------------------------
d|--------------------------------10---8---6---8(1/4)----4s5
a|----------------------------------------------------------------
E|----------------------------------------------------------------

Aziraphale
03-12-2008, 11:51 AM
Don't think this thread will fly with just tabs... can't know what it sounds like without note values.

Mr.Cuddles
03-12-2008, 11:57 AM
um we can use mp3s but that'll be a little harder won't it?
um idunno we could refrence straigh to the song and part i guess...

syk3d
03-15-2008, 02:41 AM
you know, there was a blues licks thread that should be revived.

dsmstigers
03-15-2008, 07:13 PM
for the first part of that lick you can add some fret (11) on the b and e strings

Dimebag22
03-15-2008, 08:16 PM
Already a thread. ;)

http://www.ultimate-guitar.com/forum/showthread.php?t=793974

:cheers:

moonlightmile
03-15-2008, 09:31 PM
This is a fusion riff I cae up with while listening to Al Di Meola

e|---------------------------------------------------------------------
b|---------------------------------------------------------------------
g|-5~----------------------------------------------------------------
d|----------6-5-----7------5~--------------------------------------
a|-----7-5------------5-7-------------------------------------------
E|---------------8-5-------------------------------------------------