tapped arpeggio (tab only)


PDA

View Full Version : tapped arpeggio (tab only)


aradine
03-29-2008, 11:57 PM
unfortunatly my computer is being repaired and i am not home so tab only if anyone wants to turn it into a GP5 file or powertab file feel free. this song sorta came to me technically it is not an original considering it is 2 song idea's (eruption tapping part and get out of my yard 3 string arpeggios human capo section)


tuning: EEEDAD (highest to lowest)

e|t9-2h5p2------------------------t9-2h5p2-t10-2h5p2------------------------------t10-2h5p2
e|---------t9-2h5p2-------t9-2h5p2------------------t10-2h5p2------------t10-2h5p2---------
e|-----------------t9-2h5p2-----------------------------------t10-2h5p2--------------------
d|-----------------------------------------------------------------------------------------
a|-----------------------------------------------------------------------------------------
d|-----------------------------------------------------------------------------------------

e|t10-4h7p4---------------------------t10-4h7p4-t12-4h7p4---------------------------t12-4h7p4
e|---------t10-4h7p4---------t10-4h7p4-------------------t12-4h7p4---------t12-4h7p4---------
e|------------------t10-4h7p4-------------------------------------t12-4h7p4------------------
d|-------------------------------------------------------------------------------------------
a|-------------------------------------------------------------------------------------------
d|-------------------------------------------------------------------------------------------

e|t12-5h8p5---------------------------t12-5h8p5-t13-5h8p5---------------------------t13-5h8p5
e|---------t12-5h8p5---------t12-5h8p5-------------------t13-5h8p5---------t13-5h8p5---------
e|------------------t12-5h8p5-------------------------------------t13-5h8p5------------------
d|-------------------------------------------------------------------------------------------
a|-------------------------------------------------------------------------------------------
d|-------------------------------------------------------------------------------------------


e|t13-7h10p7------------------------------t13-7h10p7-t15-7h10p7------------------------------t15-7h10p7
e|----------t13-7h10p7----------t13-7h10p7---------------------t15-7h10p7----------t15-7h10p7----------
e|--------------------t13-7h10p7-----------------------------------------t15-7h10p7--------------------
d|-----------------------------------------------------------------------------------------------------
a|-----------------------------------------------------------------------------------------------------
d|-----------------------------------------------------------------------------------------------------

e|t15-9h12p9------------------------------t15-9h12p9-t17-9h12p9------------------------------t17-9h12p9
e|----------t15-9h12p9----------t15-9h12p9---------------------t17-9h12p9----------t17-9h12p9----------
e|--------------------t15-9h12p9-----------------------------------------t17-9h12p9--------------------
d|-----------------------------------------------------------------------------------------------------
a|-----------------------------------------------------------------------------------------------------
d|-----------------------------------------------------------------------------------------------------


e|t17-12h15p12---------------------------------t17-5h8p5-t15-5h8p5-t12-5h8p5
e|------------t17-11h14p1------------t17-9h12p9-----------------------------
e|-----------------------t17-10h13p10---------------------------------------
d|--------------------------------------------------------------------------
a|--------------------------------------------------------------------------
d|--------------------------------------------------------------------------

(play next bar 4 times)

e|t12-5h8p5------------------------------t12-5h8p5
e|----------t12-5h8p5----------t12-5h8p5----------
e|--------------------t12-5h8p5-------------------
d|------------------------------------------------
a|------------------------------------------------
d|------------------------------------------------

e|-----------------------
e|-----------------------
e|-----------------------
d|-----------------------
a|-----------------------
d|-19/2-2p1/0-0-0-0-0-3p1
|PM-------|

key

t = tap
h = hammer on
p = pull off
/ = slide
PM = palm mute

Its_Rock77
03-30-2008, 01:25 AM
well, I'm not sure the point of this really if you just stole from two other songs but since I was bored I tabbed it out. there's obvious time screwups and I most likely misinterpreted alot of it. I did it pretty quick. but here ya go...