A couple of riffs for a song


PDA

View Full Version : A couple of riffs for a song


Vince Sixx
03-30-2008, 05:02 AM
120 BPM
Drop D
e|-------------------------------------------|
b|-------------------------------------------|
g|-------------------------------------------|
d|-------------------------------------------|
a|-0-3-0-345-0-3-0-3-/12-0-3-0-345-0-5-4-3-2-|
D|-0-3-0-345-0-3-0-3-/12-0-3-0-345-0-5-4-3-2-|
Q E E EEE Q E E E Q Q E E EEE Q E E E E

e|-------------------------------------------|
b|-------------------------------------------|
g|-------------------------------------------|
d|-------------------------------------------|
a|-5-3-0--------------0-333/5----------------|
D|-5-3-0--------------0-333/5----------------|
Q Q Q (2 bar rest) E EEEEE

Jonathan Trejo
03-30-2008, 05:21 AM
Played it and it sounds ok. maybe put it in ptb or gp. c4c http://www.ultimate-guitar.com/forum/showthread.php?t=823979