Your favorite Blues turnaround licks


PDA

View Full Version : Your favorite Blues turnaround licks


geetarmanic
05-29-2008, 03:52 PM
I thought this might complement the other Blues licks thread by focusing on turnarounds only... i hope you'll share your favorite turnaround licks and turnaround chord progressions.

Here's one i've been using:

E --------5-------------4-------------3---------------------------------
B ------------------------------------------------------------------------
G ---5-------5----4--------4----3--------3-----2---------------------
D -------------------------------------------------------3----4----5---
A ------------------------------------------------------------------------
E ------------------------------------------------------------------------

Thanks.

imgooley
05-29-2008, 03:56 PM
----------------------
------6-----------------
-5s7--7-5-7---------------
---------------------
------------------------
-----------------------

theshroomman
05-29-2008, 04:03 PM
----------------------------------------------------------------------444-444----
D -------1-1-2-2-4-4-----------0-0-2-2--------------------------444-444----
A --2-2---------------- 0-0-4-4---------------------2-2-4p2-----222-222----
E -------------------------------------------0-0-4-4------------0-----------------


riff i made up when i was thinkin bout surfish bluesy songs and bring it on home

Dimebag22
05-29-2008, 06:44 PM
Ugh, I have so many of these! But I don't even know what I'm playing when I actually do it. I have some epic ones though.

Here's an easier one:
e-----------4-----------------3-------------------2--------------0------
B------3-----3----------2------2----------1--------1-------------------
G-3s4--4-----4---2s3---3------3---1s2---2--------2---0h1vvvv---

imgooley
05-30-2008, 01:37 AM
How bout for a blues in Am

Play a Fmaj9 dominant and slide it down one half step?