Guess the song !!


View Full Version : Guess the song !!

06-05-2008, 02:34 PM
I was jamming today with power chords and found out this tune, I'm almost sure that I've heard it before, just don't know where. I'm guessing it's a punk song or something, but if anyone has an idea and let's me know what song resembles this one I'd appreciate it.

The chord progression is e5, b5 a5 and the tab is

e |--------------------------|
B |--------------------------|
G |--9-x--------------------|
D |--9-x----9-x---7-7-7--|
A |--7-x----9-x---7-7-7--|
E |----------7-x---5-5-5--|

And the next part is:

e |-----------------------|
B |-----------------------|
G |--9b10r9--7--------|
D |----------------9-9---|
A |-----------------------|
E |-----------------------|

So if anyone knows if it kind of sounds close to another song, post it here, thx.

06-05-2008, 02:38 PM
never let you go, third eye blind

06-05-2008, 02:50 PM
never let you go, third eye blind

saaaactly buddy thanks a lot. I was kind of close haha.