Unfinished Riffs


PDA

View Full Version : Unfinished Riffs


AdioPhr34k
08-02-2008, 04:54 PM
So, i decided to upload some riffs i made.
Feedback and constructive criticism is apreciated.

This is played with the same speed throughout the whole riff, nevermind the variations in the distance between nunbers.

e|------------1-----------2-------------1--------------------|
B|-------2---------2------------2---------------2-----------|
G|--3---------------------------------------------------------|
D|-------------------------------------------------------------|
A|-------------------------------------------------------------|
E|-------------------------------------------------------------|

e|---------3-----------------------5--------------------------|
B|-----------------4------------------------6--------------6-|
G|--5---------------------5-------------------------7--------| and then it starts over again
D|-------------------------------------------------------------|
A|-------------------------------------------------------------|
E|-------------------------------------------------------------|







I will add more riffs when i have time

Yoorai
08-02-2008, 05:01 PM
I dont see anything unique here..

_InsanitY_
08-02-2008, 05:11 PM
I dont see anything unique here..

+1

guitarheroII
08-02-2008, 05:17 PM
the last part does not even go with the first riff. At all

bloodshed344
08-02-2008, 06:02 PM
Eh, they're fine, and everyone else here is a tool, you wouldn't say that if it was in GP would you?

BKGMorley
08-03-2008, 08:01 AM
Eh, they're fine, and everyone else here is a tool, you wouldn't say that if it was in GP would you?

yeah i aggree. this guy has come up with somthing thats pretty good. and you say its ****. but if it was in gp you would have said somthing different.

Lumberjackted11
08-03-2008, 02:26 PM
the last part does not even go with the first riff. At all
+1 those riffs dont go together at all

bloodshed344
08-03-2008, 03:06 PM
I'm sorry that just because it goes into an unexpected progression does not mean it doesn't fit together. I guess you listen to Mary Had a Little Lamb all day and believe anything out of the major key is wrong?

Its_Rock77
08-03-2008, 03:41 PM
those guys' comments were justified. this is nothing special. sorry TS. not saying any of my riffs are any better though :p:

and Bbm/Cm/Dm does sound different.

and we probably would like it if it was in gp. that would mean there's more to back it up rather than just notes on a fretboard.