Need Help Finishing Verse Progression


PDA

View Full Version : Need Help Finishing Verse Progression


Pizza Truck
08-27-2008, 09:02 PM
I'm working on this song. La--la-lala is the rythym. And the Chords are D, D#7, and D7. I need one final bar to finish it. And it will repeat.

So either a chord that finishes the pattern or some little fill, whatever you think sounds good. Got any suggestions for it?

(This is the tab for it, like I said, just need a final bar. And this will repeat throughout the song.)



e|-2--2-22|-2--2-22|-2--2-22|-?????---|
B|-3--3-33|-2--2-22|-1--1-11|---------|
G|-2--2-22|-2--2-22|-2--2-22|---------|
D|--------|--------|--------|---------|
A|--------|--------|--------|---------|
E|--------|--------|--------|---------|

inno_func
08-27-2008, 09:11 PM
end it in a G mayor

Pizza Truck
08-27-2008, 09:11 PM
Lol.. I don't think I have enough time to drop the tuning in half a second, play some random strings, then tune it back correctly in half a sec and start playing again. Thanks though?

dk2
08-27-2008, 09:11 PM
e-3
b-3
g-4
? I don't really know, sorry if that didn't help :(

larrythelefty
08-27-2008, 09:13 PM
e|-2--2-22|-2--2-22|-2--2-22|--3--3--3--3-|
B|-3--3-33|-2--2-22|-1--1-11|--5--5--5--5-|
G|-2--2-22|-2--2-22|-2--2-22|--4--4--4--4-|

i put absolutely no thought into it

Pizza Truck
08-27-2008, 09:14 PM
Thanks both dk2 and inno func, both those work great! I was actually thinking of 223, but it just didn't sound right.

dk2
08-27-2008, 09:26 PM
No problem, happy to hear i didn't completely fail :)

Side Effect
08-27-2008, 09:28 PM
--5--
--5--
--5--
--5--

D 7sus4

Jake the Peg
08-28-2008, 07:18 AM
010, then 000 after half a bar
or just 202.
that means you have nice decending melody to work with.