Go Back   UG Community @ Ultimate-Guitar.Com > Music > Tab Talk
User Name  
Password
Search:

Reply
Old 04-19-2012, 06:19 PM   #1
MeGustaArroz
Registered User
 
Join Date: Apr 2012
Need some help tabbing song

There is this really cool sounding song with an awesome riff from a show called bleach. The problem is that there is absolutely no tab out for it anywhere and I haven't been playing for that long so I can't really do it myself very acuretly. So I'm asking if any one knows where I could find the tab or if some one would be nice enough to tab it for me.

The song is from bleach ost 4 and is called power to strive.
Here is a link for it on YouTube as well.


I would really appreciate it if some on could help me out.

Just going to add its only a 2 min song and not too much difficult work, just sounds cool so would appreciate the help

Last edited by MeGustaArroz : 04-19-2012 at 06:41 PM.
MeGustaArroz is offline   Reply With Quote
Old 04-19-2012, 06:43 PM   #2
trickster47321
Drinking Tea
 
trickster47321's Avatar
 
Join Date: Nov 2009
Just having a quick look i'd say that the intro is in Drop D and goes something similar to this:


e|---------------------------------------------------------------------------|
B|---------------------------------------------------------------------------|
G|---------------------------------------------------------------------------|
D|---4--4-------------4--4------------4--4---------------7--2-------------|
A|---2--2--2--2--2--2--2--2--2--2--2--2--2--2--2--5--0-------------|
D|---------------------------------------------------------------------------|

e|---------------------------------------------------------------------------|
B|---------------------------------------------------------------------------|
G|---------------------------------------------------------------------------|
D|---4--4-------------4--4------------4--4-------------------------------|
A|---2--2--2--2--2--2--2--2--2--2--2--2--2--2--2--2--0-------------|
D|-----------------------------------------------------------2--0-------------|

With the 2's palm muted, but that is an attempt after 5 minutes of listening hope it helped
__________________
POWER METAL
SYMPHONIC METAL
PROGRESSIVE METAL
GROOVE METAL
trickster47321 is offline   Reply With Quote
Old 04-19-2012, 07:11 PM   #3
MeGustaArroz
Registered User
 
Join Date: Apr 2012
thanks that helped allot! would be great if some one would just tab the part from 40 seconds to 1:07 for me and i would be happy
MeGustaArroz is offline   Reply With Quote
Old 04-21-2012, 02:24 PM   #4
MeGustaArroz
Registered User
 
Join Date: Apr 2012
http://www.youtube.com/watch?featur...GkZsuFILU#t=53s

some one please tab that part for me that's the only thing i haven't done yet, the other stuff i did myself.
MeGustaArroz is offline   Reply With Quote
Reply


Thread Tools Rate This Thread
Rate This Thread:

Posting Rules
You may not post new threads
You may not post replies
You may not post attachments
You may not edit your posts

vB code is On
Smilies are On
[IMG] code is On
HTML code is Off
Forum Jump



All times are GMT -4. The time now is 08:35 AM.

Forum Archives / About / Terms of Use / Advertise / Contact / Ultimate-Guitar.Com © 2014
Powered by: vBulletin Version 3.0.9
Copyright ©2000 - 2014, Jelsoft Enterprises Ltd.