Go Back   UG Community @ Ultimate-Guitar.Com > Music > Tab Talk
User Name  
Password
Search:

Reply
Old 02-14-2013, 04:36 PM   #1
lew_dawg
Registered User
 
Join Date: Feb 2013
REQ: Dangerous, Shark Island

You guys know, that song from Bill & Ted's excellent adventure!

-Now your dad is going for it! in your OWN ROOM!
-Shut up Ted!
-You step-mom is cute, though.
-Shut up Ted!
-Remember when I asked her to the prom?
-SHUT UP TED!!

Hahaha, this what I've got so far:


|-3--3-2-------------------|
|-3--3-3-------------------|
|-0--0-2----/9-5----------|
|------------------7-5-7~-|
|----------------------------|
|----------------------------|

|-3--3-2------------------|
|-3--3-3------------------|
|-0--0-2--------------2--|
|----------2-----------2---|
|----------0--/5-5-3-0---|
|---------------------------|

Help with the rest PLS & THANKS
lew_dawg is offline   Reply With Quote
Reply


Thread Tools Rate This Thread
Rate This Thread:

Posting Rules
You may not post new threads
You may not post replies
You may not post attachments
You may not edit your posts

vB code is On
Smilies are On
[IMG] code is On
HTML code is Off
Forum Jump



All times are GMT -4. The time now is 03:04 PM.

Forum Archives / About / Terms of Use / Advertise / Contact / Ultimate-Guitar.Com © 2014
Powered by: vBulletin Version 3.0.9
Copyright ©2000 - 2014, Jelsoft Enterprises Ltd.