Go Back   UG Community @ Ultimate-Guitar.Com > Music > Bands & Artists > Rock & Indie
User Name  
Password
Search:

Reply
Old 09-15-2012, 07:50 PM   #1
sovaso
All-American Ninja
 
sovaso's Avatar
 
Join Date: Jul 2012
Location: In a van down by the River
Somebody That I Used to Know

I just found a new way to play "Somebody That I Used to Know" by Goyte while learning "Make It" by Aerosmith. It might not be perfect but it goes like this. If you are having trouble playing the real version this works great!

E|-------7------------5----|
B|-------7------------5----|
G|-------7------------5----| and so on
D|-5-7--7----7--5---5----|
A|-3-5-------5--3--------|
E|-------------------------|

like I said it is not perfect compared to

E|--------1-----------0----------|
B|--------3-----------1----------|
G|--------2-----------0----------| and so on
D|--3-5-------5--3------3-5----|
A|--------------------------------|
E|--------------------------------|

however it certainly works if you are having trouble on the real version. I'll also post this on "Tab Talk". See y"all Later!

SOVASO
sovaso is offline   Reply With Quote
Old 09-15-2012, 11:17 PM   #2
phayzze
Registered User
 
phayzze's Avatar
 
Join Date: Jun 2011
Or you could play it like this and make it even easier.

E|--------------------------------|
B|--------6-----------5----------|
G|--------7-----------5----------|
D|--3-5--7----5--3--5---3-5--|
A|--------------------------------|
E|--------------------------------|

Your version isn't even the proper notes, you practically changed the key of the riff.

This is one of those times where it pays off to know what notes are where on the guitar.
phayzze is offline   Reply With Quote
Old 09-16-2012, 10:32 PM   #3
sovaso
All-American Ninja
 
sovaso's Avatar
 
Join Date: Jul 2012
Location: In a van down by the River
I know the version is completely off key unless you capo the 10th fret. i said it a nice way for BEGINNERS to learn. I play the lower tablature. and for the record, I know where notes are on the guitar
sovaso is offline   Reply With Quote
Old 09-17-2012, 12:15 PM   #4
Hereiwas
"Alex"
 
Hereiwas's Avatar
 
Join Date: Jun 2008
__________________
CuSO4

"I don't have an instrument, I don't have a great voice, I just have some nice clothes maybe." paul rutherford
Hereiwas is offline   Reply With Quote
Reply


Thread Tools Rate This Thread
Rate This Thread:

Posting Rules
You may not post new threads
You may not post replies
You may not post attachments
You may not edit your posts

vB code is On
Smilies are On
[IMG] code is On
HTML code is Off
Forum Jump



All times are GMT -4. The time now is 12:10 PM.

Forum Archives / About / Terms of Use / Advertise / Contact / Ultimate-Guitar.Com © 2015
Powered by: vBulletin Version 3.0.9
Copyright ©2000 - 2015, Jelsoft Enterprises Ltd.