Go Back   UG Community @ Ultimate-Guitar.Com > Music > Tab Talk
User Name  
Password
Search:

Reply
Old 08-26-2012, 12:00 PM   #1
Millea
Registered User
 
Join Date: Apr 2012
[Request] XXYYXX-Closer

It's a chillwave/ambient song but their is an acoustic guitar sample in it which is just amazing, if anyone knows the song it comes from and can tab it out for me it would be so helpful! If you're into chillwave/ambient music I highly recommend giving him a listen. I can't link it right now as I am on my iPod, sorry.
Millea is offline   Reply With Quote
Old 08-26-2012, 03:24 PM   #2
Millea
Registered User
 
Join Date: Apr 2012
Millea is offline   Reply With Quote
Old 08-30-2012, 04:44 PM   #3
Millea
Registered User
 
Join Date: Apr 2012
Help help help
Millea is offline   Reply With Quote
Old 08-30-2012, 06:31 PM   #4
adamgur96
Not caring no more
 
adamgur96's Avatar
 
Join Date: Apr 2011
Location: On a Small Ugly Rock In Space, Surrounded By Over 7,000,000,000 Ignorant Cunts And Retąrds....... Status: If I Just Posted This Then I Probably Have Too Much Spare Time.....
hey man, this is easy to learn by ear, i'm sure you can do it yourself.
i'll give you a hint, use a capo on the first fret.
if i'll have time soon i'm gonna tab it for ya, but don't rely on tabs, try to learn by ear.
__________________
I put my sig in a spoiler because i view UG sigless anyway.
adamgur96 is offline   Reply With Quote
Old 08-30-2012, 07:06 PM   #5
adamgur96
Not caring no more
 
adamgur96's Avatar
 
Join Date: Apr 2011
Location: On a Small Ugly Rock In Space, Surrounded By Over 7,000,000,000 Ignorant Cunts And Retąrds....... Status: If I Just Posted This Then I Probably Have Too Much Spare Time.....
ok so i listened to the woule song, the guitar does only one riff:

capo on first fret

e-------------------------0-----------|-----------------------------0-------------|
B----------------4--------------------|--------------------4------------4--------|
G---------4----------4---------------|--------------4---------4-----------4-----|
D-------------------------------------|--------------------------------------------|
A------0------------------------------|-----0-------------------------------------|
E -------------------------------------|-------------------------------------------|


e-------------------------0-----------|--------------------------------------------------|
B----------------4--------------------|--------------------4----------------------------|
G---------4----------4---------------|--------------4---------4------------------------|
D-------------------------------------|---------------------------------------------------|
A------4------------------------------|-----4------------------------------6--------6---|
E -------------------------------------|-------------------------------4---------4-------|
__________________
I put my sig in a spoiler because i view UG sigless anyway.
adamgur96 is offline   Reply With Quote
Old 02-12-2013, 02:29 AM   #6
Theink
Registered User
 
Join Date: Aug 2011
The guitar and vocals are sampled from Closer by Ne-yo, which might be easier to find and more to mess around with.
Theink is offline   Reply With Quote
Reply


Thread Tools Rate This Thread
Rate This Thread:

Posting Rules
You may not post new threads
You may not post replies
You may not post attachments
You may not edit your posts

vB code is On
Smilies are On
[IMG] code is On
HTML code is Off
Forum Jump



All times are GMT -4. The time now is 01:17 AM.

Forum Archives / About / Terms of Use / Advertise / Contact / Ultimate-Guitar.Com © 2014
Powered by: vBulletin Version 3.0.9
Copyright ©2000 - 2014, Jelsoft Enterprises Ltd.