Go Back   UG Community @ Ultimate-Guitar.Com > Instruments > Guitar Techniques
User Name  
Password
Search:

Reply
Old 07-06-2013, 03:09 PM   #1
Klajdi Abbott
Registered User
 
Join Date: May 2013
Help with Tornado Of Souls Solo fast part in the end

e|-/14p10--10--14p10-14p10--10--14p10-14p10--10-|
B|-------12---------------12---------------12---|
G|----------------------------------------------|
D|----------------------------------------------|
A|----------------------------------------------|
E|----------------------------------------------|

e|-15p10--10-14p10--10-15p10--10-14p10--10-|
B|------12--------12--------12--------12---|
G|-----------------------------------------|
D|-----------------------------------------|
A|-----------------------------------------|
E|-----------------------------------------|

e|-15p10--10--15p10-15p10--10--15p10-15p10--10-|
B|------12---------------12---------------12---|
G|---------------------------------------------|
D|---------------------------------------------|
A|---------------------------------------------|
E|---------------------------------------------|

e|-17p10--10-15p10--10-17p10--10-15p10--10-|
B|------12--------12--------12--------12---|
G|-----------------------------------------|
D|-----------------------------------------|
A|-----------------------------------------|
E|-----------------------------------------|

e|-16p10--10--16p10-16p10--10--16p10-16p10--10-|
B|------12---------------12---------------12---|
G|---------------------------------------------|
D|---------------------------------------------|
A|---------------------------------------------|
E|---------------------------------------------|


Can anyone help with a picking pattern for this so I can get the correct speed, do I pick on the inside or outsides of the strings?
Klajdi Abbott is offline   Reply With Quote
Old 07-06-2013, 04:58 PM   #2
MoJo-EaTeR
Registered User
 
MoJo-EaTeR's Avatar
 
Join Date: Nov 2010
Location: Philadelphia
I would up-stroke the e string, and down-stroke the b. However Marty Friedman may up-stroke the whole thing because of his crazy hand positioning.
MoJo-EaTeR is offline   Reply With Quote
Old 07-07-2013, 04:09 AM   #3
My Last Words
Billions and billions!
 
My Last Words's Avatar
 
Join Date: Jul 2012
Location: Eindhoven
I beg you, use CODE tags, like this:

Code:
e|-/14p10--10--14p10-14p10--10--14p10-14p10--10-| B|-------12---------------12---------------12---| G|----------------------------------------------| D|----------------------------------------------| A|----------------------------------------------| E|----------------------------------------------|
__________________
baab
My Last Words is offline   Reply With Quote
Old 07-08-2013, 03:07 PM   #4
TheProtoTYPE
Banned
 
TheProtoTYPE's Avatar
 
Join Date: Mar 2012
up pull-off down _ up pulloff down down _ up pulloff down down
TheProtoTYPE is offline   Reply With Quote
Reply


Thread Tools Rate This Thread
Rate This Thread:

Posting Rules
You may not post new threads
You may not post replies
You may not post attachments
You may not edit your posts

vB code is On
Smilies are On
[IMG] code is On
HTML code is Off
Forum Jump



All times are GMT -4. The time now is 03:39 PM.

Forum Archives / About / Terms of Use / Advertise / Contact / Ultimate-Guitar.Com © 2014
Powered by: vBulletin Version 3.0.9
Copyright ©2000 - 2014, Jelsoft Enterprises Ltd.