The Rule of Fives

author: Bass_for_life date: 08/14/2013 category: bass lessons
rating: 7.5 / votes: 8 
The Rule of Fives
The rule of five (examples on bass guitar) This lesson assumes you already know about the circle of fifths, major scale construction and intervals (if this isn't the case then I will do some lessons in the future to help clear this ambiguous information). If you know about these three concepts then this lesson will aid in your practice routine, dexterity, speed and hand coordination. When most people practice applying theoretical concepts to instruments and musical situations, they normally start by learning the basics and then proceed to apply them to situations. Most people do this without fully expanding and learning more advanced applications within the chosen concept. So taking the major scale for starters. The major scale is constructed using 7 different notes and most people learn any scale in only one position. They then proceed to practice ascending chromatically till that scale is played in all 12 keys. The reason this lesson is called "the rule of five" is due to everything being grouped in fives whether it's five note sequences, around the circle of fifths or increasing 5 BPM. I've broken these down into five steps, which can be applied, to scales, arpeggios or rhythmic sequences. 1) Practice scales moving in fifths (through the circle of fifths). I do this a lot with scales where you start with an A major scale (for example) and move round to E, B, F#, Db, Ab, Eb, Bb, F, C, G, D and back to A. (I've used enharmonic equivalents in this example to keep consistent to the circle of fifths). Practice this sequence both ascending and descending, alternating after each scale (A major ascending, E major descending, B major ascending, F# descending and so on). A major scale ascending (2 octave)
G------------------------------4-6-7-9-11-13-14---------------
D--------------------4-6-7------------------------------------
A------------4-5-7--------------------------------------------
E------5-7----------------------------------------------------
E major scale descending (2 octave)
G-----9-8-6-4-------------------------------------------------
D----------------7-6-4----------------------------------------
A-------------------------7-6-4-------------------------------
E----------------------------------7-5-4-2-0------------------
2) Apply this same method going up a fourth (down a fifth circle of fourths) to learn the sequence in reverse (which is always good practice for chord sequences especially in jazz). A, D, G, C, F, Bb, Eb, Ab, Db, F#, B, E and back to A. This sequence is great for jazz as it creates a rolling ii V movement throughout all 12 major keys. Practice this sequence again similar to the previous exercise (ascending, descending, ascending, descending). 3) Practice scales in sets of five. Take the root to the fifth, second to the sixth, running up and down the scale. A major scale ascending
G--------------------------------------------------------------------------4-----4-6-7
D----------------------------4---------4-6-------4-6-7-----4-6-7----4-6-7---6-7-------
A-----------4-5-7-----4-5-7-----4-5-7-------5-7----------7----------------------------
E------5-7----------7-----------------------------------------------------------------

G----------6--7--9------6--7--9--11--6--7--11--13--14---------------------------------
D----7-9-------------9----------------------------------------------------------------
A-------------------------------------------------------------------------------------
E-------------------------------------------------------------------------------------
4) Practice scales in intervals of a fifth. Take each note of the major scale and play a fifth above (a fifth relevant to the major key, not just a perfect fifth). All of these intervals will be a perfect fifth except on the seventh note of the scale where it's a diminished fifth (tri-tone). A major scale in fifth intervals
G-------------------------------------------7-----9-----
D--------------------6----7----9----11---6----7---------
A---------7----9--4---5----7----9-----------------------
E------5----7-------------------------------------------
5) Always practice scales, arpeggios, rhythms and grooves in sets of fives. In this case, five means increases in BPM (beats per minute) with a metronome. Always start slow at roughly 60bpm then increase to 65bpm till you reach your limit (where you can't comfortably play it in a repetitive cycle). People normally believe that if they are able to play a scale, groove or arpeggio once to a metronome then they can comfortably play it. It must feel comfortable when played in a constant repetitive fashion (at least five to ten times in constant cycle). With constant practice you'll be able to increase the metronome further after a while.
More Bass_for_life lessons:
+ Slap Bass - The Middle Finger Bass Lessons 04/23/2014
+ Slap Bass - The Basics Bass Lessons 04/21/2014
+ Bass Three Finger Right Hand Technique Bass Lessons 08/27/2013
Comments
Your captcha is incorrect