Practice With My Own Tabs: Imagination

author: ace.carter.526 date: 09/16/2013 category: correct practice
rating: 7.2 / votes: 6 
Practice With My Own Tabs: Imagination
This is practice in an unusual way and could help with soloing/tapping. I found out by just doing something like this. So I started playing this riff and somewhat, my tapping/soloing skills felt better:
E|-----------------------------------------------6--7--9--
B|--------------------------------------6--8--9-----------
G|-----------------------------6--7--9--------------------
D|--------------------6--8--9-----------------------------
A|-----------6--7--9--------------------------------------
E|--6--8--9-----------------------------------------------
I don't know if there is such a thing: Ex. 1 The riff I played kept going in my mind and using my imagination, I created a ex. for my hands to get used to the fretboard:
E|---------------------------------------------------------
B|---------------------------------------------------------
G|---------------------------------------------------------
D|--------------------3--5--6--------------------7--9--10--
A|-----------2--3--5--------------------6--7--9------------
E|--1--3--4--------------------5--7--8---------------------
Ex. 2
E|-----------------------------------------------1--2--4--
B|--------------------------------------1--3--4-----------
G|-----------------------------1--2--4--------------------
D|--------------------1--3--4-----------------------------
A|-----------1--2--4--------------------------------------
E|--1--3--4-----------------------------------------------

E|-----------------------------------------------4--5--7-----
B|--------------------------------------4--6--7--------------
G|-----------------------------4--5--7-----------------------
D|--------------------4--6--7--------------------------------
A|-----------4--5--7-----------------------------------------
E|--4--6--7--------------------------------------------------

E|----------------------------------------------------7--8--10--
B|------------------------------------------7--9--10------------
G|--------------------------------7--8--10----------------------
D|----------------------7--9--10--------------------------------
A|------------7--8--10------------------------------------------
E|--7--9--10----------------------------------------------------
Ex. 4
E|--------------------------------------------------------------12--13--15--
B|--------------------------------------------------12--14--15--------------
G|--------------------------------------12--13--15--------------------------
D|--------------------------12--14--15--------------------------------------
A|--------------12--13--15--------------------------------------------------
E|--12--14--15--------------------------------------------------------------
All the ex. I played was at a slow pace. Try to play at a fast pace or your own pace. BTW I'm left-handed.
Comments
Your captcha is incorrect