Warm Ups II

author: Unregistered date: 07/19/2004 category: correct practice
rating: 9 / votes: 22 
Lession: Warm Ups II Writer: George Frost Email: george@ezaypage.fslife.co.uk Tuning: Standard (E,A,D,G,B,e) Speed: Varying (see bottom) Here is the follow up part to my Warm Ups I article. These warm ups may prove to be considerably harder. Hammer On and Pull Off Lick in E Minor:
e|-15p12-15p12-15p12-15p12-15p12-15p12-15p12-15p12---|
B|---------------------------------------------------|
G|---------------------------------------------------|
D|---------------------------------------------------|
A|---------------------------------------------------|
E|---------------------------------------------------|


e|---------------------------------------------------|
B|-15p12-15p12-15p12-15p12-15p12-15p12-15p12-15p12---|
G|---------------------------------------------------|
D|---------------------------------------------------|
A|---------------------------------------------------|
E|---------------------------------------------------|


e|-15p12-------15p12-------15p12-------15p12---------|
B|-------15p12-------15p12-------15p12-------15p12---|
G|---------------------------------------------------|
D|---------------------------------------------------|
A|---------------------------------------------------|
E|---------------------------------------------------|

                                              BU
e|-15p12-------15p12-------15p12-------15p12-12------|
B|-------15p12-------15p12-------15p12-------15(17)-|
G|---------------------------------------------------|
D|---------------------------------------------------|
A|---------------------------------------------------|
E|---------------------------------------------------|

This is based around the E Minor Pentatonic scale:
e|-------------------------------12-(15)-------------|
B|-------------------------12-15---------------------|
G|-------------------12-14---------------------------|
D|-------------12-14---------------------------------|
A|-------12-14---------------------------------------|
E|-12-15---------------------------------------------|

Hammer On and Pull Off Lick II:
e|-10p7-8p7----10p7-8p7----10p7-8p7----10p7-8p7------|
B|---------10p7--------10p7--------10p7--------10p7--|
G|---------------------------------------------------|
D|---------------------------------------------------|
A|---------------------------------------------------|
E|---------------------------------------------------|

Bending Lick:               BU BD  BU  BD  BU  BD  x3
e|------------------------12(15)(12)(15)(12)(15)(14)-|
B|---------------------------------------------------|
G|o-------------------------------------------------o|
D|o-------------------------------------------------o|
A|---BU-----BU-----BU--------------------------------|
E|--12(13)-12(14)-12(15)-----------------------------|


Two Hand Tapping Lick:
e|-17p15p12-20p15p12-18p15p12-16p15p12-19p15p12h15p10|
B|-t--------t--------t--------t--------t-------------|
G|---------------------------------------------------|
D|---------------------------------------------------|
A|---------------------------------------------------|
E|---------------------------------------------------|
Use these a bit later on in your warm up, as some of them can be quite demanding when played at speed. Start the metranome at about 50bmp, then go up in steps of 10 or 20 until you can't play it any faster. If you're not warmed up after that, you never will be!
Comments
Your captcha is incorrect