7 Famous Easy Riffs For Beginners

author: Explorer939 date: 01/04/2011 category: for beginners
rating: 7.8 / votes: 47 
7 Famous Easy Riffs For Beginners
Hey guys! Right, now I know what it's like to be a beginner guitarist: it's kinda boring, right? You keep on thinking - when can I learn that cool riff? - or you just wanna impress others by saying: "Yeah, I can play Guns N' Roses," or whatever. So I've put together 7 easy guitar riffs from: 1. Guns N' Roses 2. Scorpions 3. Michael Jackson 4. Black Sabbath 5. Green Day 6. Linkin Park 7. Iron Maiden But before we begin, the "Sweet Child O' Mine" intro tab is not mine, and the credit should go to the member jake_luvs_bex, as this intro was tabbed by him (I just included it, as it's a pretty good tab). Enjoy! 1. "Sweet Child O' Mine" intro
1|-------------15----14----|-------------15----14----|
2|----15-------------------|----15-------------------|
3|-------14-12----14----14-|-------14-12----14----14-|
4|-12----------------------|-12----------------------|
5|-------------------------|-------------------------|
6|-------------------------|-------------------------|

1|-------------15----14----|-------------15----14----|
2|----15-------------------|----15-------------------|
3|-------14-12----14----14-|-------14-12----14----14-|
4|-14----------------------|-14----------------------|
5|-------------------------|-------------------------|
6|-------------------------|-------------------------|

1|-------------15----14----|-------------15----14----|
2|----15-------------------|----15-------------------|
3|-12----14-12----14----14-|-12----14-12----14----14-|
4|-------------------------|-------------------------|
5|-------------------------|-------------------------|
6|-------------------------|-------------------------|
2. "Rock You Like A Hurricane" intro
1|------------------------------|
2|------------------------------|
3|-9-9-9-------------5--7-7-----|
4|-9-9-9---5-5--7-7--5--7-7-----|
5|-7-7-7---5-5--7-7--3--5-5-----|
6|---------3-3--5-5-------------|
3. "Beat It" intro
1|---------------------------|---------------------------|
2|---------------------------|---------------------------|
3|----------0----------------|----------0----------------|
4|-------------2--4--2--0--0-|-------------2--4--2--0----|
5|-------2-------------------|-------2-------------------|
6|-0--3----------------------|-0--3----------------------|
4. "Iron Man" intro
1|------------------------------------------------|
2|------------------------------------------------|
3|------------------------------------------------|
4|----7--7-9-9---12/11/12/11/12/11--7-7--9-9------|
5|-9--5--5-7-7---10/-9/10/-9/10/-9--5-5--7-7------|
6|-7----------------------------------------------|
5. "American Idiot" intro
1|----------------------------|
2|----------------------------|
3|----------------------------|
4|-------6--6-6---------------|
5|-6-6-6-4--4-4-4-4-6-6-------|
6|-4-4-4--------2-2-4-4-------|
6. "Numb" intro
1|-------------14--17--16---------------17--16---------|    
2|-14--17--14---------------14--17--14----------17-----|    
3|-----------------------------------------------------|    
4|-----------------------------------------------------|  x2
5|-----------------------------------------------------|    
6|-----------------------------------------------------|    
7. "Wasting Love" intro
1|-----------------------------------------------------|
2|--------------10^------12-10-------------------------|
3|-9--11-12----------11--------12-11-12-11-9----9------|
4|----------10-------------------------------12--------|
5|-----------------------------------------------------|
6|-----------------------------------------------------|
So I hope you enjoyed this lesson! It's my first actually, and PLEASE rate and comment on this! Thanks!
Comments
Your captcha is incorrect