Balinese/Javanese Etnic Music Style. Part 2

author: Radeet date: 11/05/2010 category: for beginners
rating: 10 / votes: 2 
On part 1 I described the musical style, and the scales used to play the ethnic Balinese music. Now I'll give you some nice guitar licks. I was try to upload my lesson i gp5 version but it rejected (lol).. So I upload it on 4shared. The lick that I make is part of my songs 1. Miyik Sekar Sandat (fragnant of chrysolite flower)
|--7--7------7h-8--7--10--8-|
|-----7------7--------------|
|---------------------------|
|---------------------------|
|---------------------------|
|---------------------------|
  
--7--10--8--7--------------|------------------------------|
-----------------8-8-7-8---|--7h-8-7----------------------|
---------------------------|----------7--5--4-----5p-4----|
---------------------------|-------------------5--------5-|
---------------------------|------------------------------|
---------------------------|------------------------------|
   
----------------------------|---------------------|
----------------------------|---------------------|
----------------------------|---------------------|
--L-----4-------------------|---------------------|
-----5-----5--3p-2-----3-2--|---------------------|
--------------------3-------|--3~-----------------|
2. (galang Bulan) Full moon
|-----------------------|------------------------|-------------------------|
|-----------7--8--7-----|------------7--8--7-----|----------7--8--7--------|
|--7-----------------7--|--5--7---------------7--|--5--7-------------5--7--|
|--0--------------------|-----0------------------|-----0-------------------|
|-----------------------|------------------------|-------------------------|
|-----------------------|------------------------|-------------------------|
   
---------7--8--7--------|---------7--8--7--------|---------8--7-----------|
--8---------------8--7--|--8---------------8--7--|--8------------8--7-----|
--7---------------------|--7---------------------|--7------------------7--|
--5---------------------|--5---------------------|--5---------------------|
------------------------|------------------------|------------------------|
------------------------|------------------------|------------------------|
   
----------------------||
----------------------||
--5--4----------------||
--------5-------------||
----------------------||
----------------------||
To be continue...
More Radeet lessons:
+ Balinese/Javanese Etnic Music Style. Part 1 Music Styles 10/18/2010
Comments
Your captcha is incorrect