Tabs: Terms And Techniques

author: clamburgler date: 12/23/2009 category: for beginners
rating: 9 / votes: 31 
Tablature (or tab for short) is a form of a musical chart showing instrument fingering rather than musical pitches.A guitar tab shows the strings on the left from the high E on top to the low E on the bottom. A guitar tab is read from left to right. An example of a guitar tab would be like the one below: "Paint it Black" by The Rolling Stones
e|---------------------------------------------
B|-----5--7--8--10--8--7--5--5----4--5--7--5--4
G|---------------------------------------------
D|---------------------------------------------
A|---------------------------------------------
E|---------------------------------------------
This tab shows all 6 guitar strings.This shows that you are playingthe 5th fret then 7th and so on, on the B string. The closer together that the numbers are on a tab is how quickly they are played one after another. Try this tab out! A Hammer-On A Hammer-On is another or multiple notes played by only one being picked. These are what you usually hear in fast solos. To do this pick a note and with another finger hit a higher note.Try this out.
e|-------5h6-----------------------------------
B|-------5h6-----------------------------------
G|-------5h6-----------------------------------
D|-------5h6-----------------------------------
A|---------------------------------------------
E|---------------------------------------------
A Pull-Off A Pull-Off is very similar to a Hammer-On which I mentioned earlier. A Pull-Off is is another or multiple notes played by only one picked note. To perform a pull off place a finger on the fret before the one your about to play. After strumming your note pull your finger off to expose the one sitting on the lower fret before your note. Try this tab below:
e|--3p2----------------------------------------
B|------4p3------------------------------------
G|----------5p4--------------------------------
D|--------------6p5----------------------------
A|------------------7p6------------------------
E|----------------------8p7--------------------
Bending: Bending is to play a note and while holding it you bend push it up or pull it down. This will make your note sound higher or lower to get unique sounds. Try this tab below and see the difference.
e|---------------------|-----------------------
B|---------------------|-----------------------
G|--3-3-4-5-4-3-1------|--3b3b4b5b4b3b1--------
D|---------------------|-----------------------
A|---------------------|-----------------------
E|---------------------|-----------------------
Vibrato: Vibrato is a sound that makes one note sound higher and lower rapidly.To do this you play your note normally, but you bend it up and down repeatedly. How fast you do this is up to you and what you think sounds good. Try it.
e|----------------3~---5~---7~-----------------
B|---------------------------------------------
G|---------------------------------------------
D|---------------------------------------------
A|---------------------------------------------
E|---------------------------------------------
Sliding: Sliding is a great technique thats easy and sounds similar to Hammer-Ons. To perform a slide you simply strum a note and slide that finger up or down the neck to a higher or lower note. Try this out.
e|---------------------------------------------
B|------------------1/3--3/5--5/7--7/9---------
G|---------------------------------------------
D|--6/11---9/6---------------------------------
A|---------------------------------------------
E|---------------------------------------------
Ringing: Ringing is just playing a note and keeping your finger on the fret so the sound keeps going. You will see a note that is supposed to be ringing in between brackets.
e|----5----------------------------------------
B|-6----6--------------------------------------
G|--7-----7------------------------------------
D|(0)------------------------------------------
A|---------------------------------------------
E|---------------------------------------------
Try Out Your New Techniques: Now try out this solo. "Santeria" by Sublime Also thank you for reading my lesson please rate high its my first one :)
e|--------------------------------------------------------------------------
B|--------------------------------------------------------------------------
G|--------------9-11-11-9-88\6-8-6-6p4---4---------------------------4h5h6-
D|---------9-11-------------------------6---2-4p2---------------4h5h6-------
A|--7-9/11----------------------------------------4-------2h3h4-------------
E|--------------------------------------------------2h3h4-------------------

e|---------9-----------------------------------------------------9----------
B|-5-5--12---12-----------------------------------------------11---9---11---
G|--------------9-11-9----9-----------------------------------11-----9-11---
D|---------------------11---11p9---------9----------10----10----------------
A|-------------------------------11-9h11---9-7-9/11----11-------------------
E|--------------------------------------------------------------------------

e|-9------------------------------------------------------------------------
B|---9----------------------------------------------------------------------
G|-----9-11-11p9----9----11----9-------------------------------------------
D|---------------11---11----11----------------------------------------------
A|-------------------------------------------------------------------------
E|--------------------------------------------------------------------------
Comments
Your captcha is incorrect