Warming Up: Sweep Picking Exercise

author: Lubira date: 09/30/2010 category: for beginners
rating: 3.6 / votes: 7 
It is very important to feel confident with all four of your fingers on the fretboard. One thing I've noticed with many guitar beginners around me is that they looked over the importance of training their fingers. I've been thinking what would be good for the training and I came up with a few practices:
Fig) 1
    (D) U  D  U (D) U  D  U   
E||--------------------------|
B||--------------------------|
G||--------------------------|
D||--------------------------|
A||--------------1--2--3--4--|
E||--1--2--3--4--------------|
 
 (D) U  D  U (D) U  D  U    (D) U  D  U (D) U  D  U   
--------------------------|--------------1--2--3--4--|
--------------------------|--1--2--3--4--------------|
--------------1--2--3--4--|--------------------------|
--1--2--3--4--------------|--------------------------|
--------------------------|--------------------------|
--------------------------|--------------------------|
Now, I know what you are thinking. 'ugggh another chromatic scales..' but it is important. It is so important that makes me think this is the thing that separates guitar experts from beginners(I'm not trying to imply that I'm good at guitar or anything, I suck). It is the basic exercise that literally getting your fingers used to the fretboard. As for holding a pick, I really don't have anything to say as I change my holding shape from lead playing to rhythm playing. I find Paul Guilbert pick holding shape, where you minimize the string contact surface of pick as well as a firm grip of it, very versatile for both lead and rhythm play but then again, everyone's style varies so be patient and try to spend a lot of time finding your right shape. Instead of just playing these notes plainly, try to accentuate picking on (D) and play softly on the rest so that beat pattern would be like: * o o o * o o o Da! da da da Da! da da da Getting the idea? This pattern builds both picking sensitivity and finger strength. Try both ascending and descending pattern one after another, starting from 80 BPS. It takes amazingly long time to get used to it. If you feel comfortable and confident picking them, increase the speed by 5 or 10 BPS. After mastering the pattern, try these as well..
 D (U) D  U  D (U) D  U   : o * o o  o * o o
 D  U (D) U  D  U (D) U   : o o * o  o o * o
 D  U  D (U) D  U  D (U)  : o o o *  o o o *
(D) U  d  U (D) U  d  U   : * o x o  * o x o 
(play softer on d than (D) but louder than the other)
These are evened out up and down picking patterns. Alternate picking is what I find confusing the most... So try these as well:
Fig) 2
    (D) U  D (U) D  U    (D) U  D (U) D  U   
E||--------------------|--------------------|
B||--------------------|--------------------|
G||--------------------|-----------1--2--4--|
D||--------------------|--1--2--4-----------|
A||-----------1--2--4--|--------------------|
E||--1--2--4-----------|--------------------|
 
 (D) U  D (U) D  U                
-----------1--2--4--|
--1--2--4-----------|
--------------------|
--------------------|
--------------------|
--------------------|
 
Fig) 3
 
  (D) U  D (U) D  U 
|--------------------|
|--------------------|
|--------------------|
|--------------------|
|-----------1--3--4--|
|--1--3--4-----------|
 
 (D) U  D (U) D  U    (D) U  D (U) D  U   
--------------------|-----------1--3--4--||
--------------------|--1--3--4-----------||
-----------1--3--4--|--------------------||
--1--3--4-----------|--------------------||
--------------------|--------------------||
--------------------|--------------------||
 
Alternate Patterns: 
 
 D (U) D  U (D) U   : o * o   o * o 
 D  U (D) U  D (U)   : o o *   o o * 
(D) U  d (D) U  d    : * o x   * o x 
More you do these exercise, better you would get at it. More importantly, try to get away from 1 to 4 frets and move up and down. I usually go up to 12 fret from the first fret in 1~4 2~5 3~6 pattern. After doing these exercises, you would feel pain in your left fingers but try not to crack them. Massage them gently ;) Sweep picking After finishing the chromatic exercises, you should feel confident with both your right and left hand. Sweep picking really does not come together until both your right and left hands synchronizes perfectly so do those exercises above more often. I usually train myself with simple exercises at very slow speed and speed it up gradually. Try the followings at 75 BPS and reach upto 120 BPS: D : Down U : Up p : Pull off h : Hammering on
Fig) 4
 
G Major pattern
 
     D  U  D  U  D  D  D   D   U  p  U  U  U   U  D  U  D
E||------------------------7--10--7----------------------
B||---------------------8------------8-------------------
G||------------------7------------------7----------------
D||---------------9------------------------9-------------
A||--------5--10------------------------------10--5------
E||--3--7--------------------------------------------7--3
 
Fig) 5
  
G Minor pattern
 
     D  U  D  U  D  D  D   D   U  p  U  U  U   U  D  U  D
E||------------------------6--10--6---------------------
B||---------------------8------------8------------------
G||------------------7------------------7---------------
D||---------------8------------------------8------------
A||--------5--10------------------------------10--5-----
E||--3--6--------------------------------------------6--3
 
Fig) 6
 
G Half- Whole scale 
(tell me if I'm wrong, I dunno what the hell this is called)
 
     D  U  D  U  D  U  D  U   
E||--------------------------|
B||--------------------------|
G||--------------------6--9--|
D||--------------5--8--------|
A||--------4--7--------------|
E||--3--6--------------------|
 
  D  D  U  p  U  U  D  U     D  U  D  U  D         
-----6--9--6--------------|-----------------|
--8-----------8-----------|-----------------|
-----------------9--6-----|-----------------|
-----------------------8--|--5--------------|
--------------------------|-----7--4--------|
--------------------------|-----------6--3--|
This thing is especially important if you are intending to get into Metal as you can find these type of positioning a lot. Bonus! This is an intro from 'Backwards Marathon' by Between the Buried and Me. this is pretty hard stuff but once you get it, it will put a smile on your face!
BPS 145
 
      PM PM PM PM PM PM PM PM           PM PM PM PM  
      D  U  D  U  D  U  D  U  D       U D  U  D  U   
C#||------------------------------------------------|
G#||------------------------------------------------|
E ||------------------------------------------------|
B ||--------------------------3h-6p-3---------------|
F#||--------------2--5--2--0----------5-2-----------|
C#||--1--4--1--0---------------------------4--1--0--|
 
Repeat that three times and:
 
               PM PM PM PM PM PM PM            
 D         U D U  D  U  D  U  D  U  D       U
----------------------------------------------|
----------------------------------------------|
----------------------------------------------|
--7h-10p-7--------------------------5h-8p-5---|
-----------9-6----------------4--7----------7-|
---------------8--5--0--3--6------------------|
This is my first time writing a lesson, so I might have mistakes. I hope I helped you readers with my lesson. Enjoy and keep the notes coming!
Comments
Your captcha is incorrect