10 Guitar Speed Puzzles

author: watrtamamma date: 07/03/2009 category: guitar techniques
rating: 7.1 / votes: 16 
Here are 10 guitar puzzles, don't let them might blow your brain out. They go from easy to hard. You have to play these as fast as you can and You may loop them a couple of times to make it harder. they are all played in eight-parts(wrong words) The numbers above the tabs indicates the finger numbers -they have a big influence on the difficulty.
10.
      3  2  1    1 2 3     1  2  3   3 2 1 
E|---------------------------------------------------------------------------
B|---------------------------------------------------------------------------
G|--0-12-11-10-0-7-8-9-0-10-11-12-0-9-8-7------------------------------------
D|---------------------------------------------------------------------------
A|---------------------------------------------------------------------------
E|---------------------------------------------------------------------------

09.
      2  1    1 2    2 1   1 2
E|---------------------------------------------------------------------------
B|---------------------------------------------------------------------------
G|--0-12-11-0-9-10-0-8-7-0-9-10----------------------------------------------
D|---------------------------------------------------------------------------
A|---------------------------------------------------------------------------
E|---------------------------------------------------------------------------

08.
      2 3    2 1   2 3   2 1
E|---------------------------------------------------------------------------
B|------10-----8-----8-----6-------------------------------------------------
G|--0-9----0-9---0-7---0-7---0-0-0-0-----------------------------------------
D|---------------------------------------------------------------------------
A|---------------------------------------------------------------------------
E|---------------------------------------------------------------------------

07.
    4  1 3  1 2  1 1 1 1 2 1 3 1 4 1 4 
E|---------------------------------------------------------------------------
B|---------------------------------------------------------------------------
G|-----9----9----9---9---9---9---9---9---------------------------------------
D|--12---11---10---9---8---7---6---5-----------------------------------------
A|---------------------------------------------------------------------------
E|---------------------------------------------------------------------------

06.
    4  3  1 4  1 3  1 3  4  1 3  1
E|---------------------------------------------------------------------------
B|--------9-12-----------12-9------------------------------------------------
G|-----11------9-11---11------11-9-------------------------------------------
D|--12--------------9--------------------------------------------------------
A|---------------------------------------------------------------------------
E|---------------------------------------------------------------------------

05.
    3  1  1  4  1  3  1  1  4  1  4  1  4 1  3  1
E|-----------------------10-13-10----10--------------------------------------
B|--------10-13-10----10----------13---13-10----10---------------------------
G|-----10----------12------------------------12------------------------------
D|--12-----------------------------------------------------------------------
A|---------------------------------------------------------------------------
E|---------------------------------------------------------------------------

04.
      1    4    2    2    3
E|---------------------------------------------------------------------------
B|--0-10-0-14-0-12-0-11-0-13-------------------------------------------------
G|---------------------------------------------------------------------------
D|---------------------------------------------------------------------------
A|---------------------------------------------------------------------------
E|---------------------------------------------------------------------------

03.
    4  3  1  3  1  1  4  1  3  1  4  1  3  1  1  1 
E|---------------------------------------------------------------------------
B|-----------------10----10----10----10----10----10--------------------------
G|--13-12-10----10----13----12----13----12----10-----------------------------
D|-----------12--------------------------------------------------------------
A|---------------------------------------------------------------------------
E|---------------------------------------------------------------------------

02.
    3 1 3 1 1 3 1 3 1 3 1 1
E|---------------------------------------------------------------------------
B|--------7------------------------------------------------------------------
G|----7-----7---7-9-7---7----------------------------------------------------
D|------9-----9-------9---7--------------------------------------------------
A|--9------------------------------------------------------------------------
E|---------------------------------------------------------------------------

01. FINAL
    1 2  4  1 2  1 1 2  1 1 1 2  2  2  1 2
E|---------------------------------------------------------------------------
B|---------------------------------------------------------------------------
G|----------------------9-----10---------------------------------------------
D|--9-10----9-10---9-10---9------10----9-------------------------------------
A|-------12------9----------9-------10---10----------------------------------
E|---------------------------------------------------------------------------
Thanks for playing! made by wattamamma
Comments
Your captcha is incorrect