5 String Sweep Picking - Canon

author: DanColeGuitar date: 07/04/2014 category: guitar techniques
rating: 6.2 / votes: 6 
5 String Sweep Picking - Canon
Ok, so in the video below I explain how to play the sweep picking technique. Also below is the tab. 

About the lick:

The lick is a 5 string sweeping technique which uses both major and minor positions. It's a great lick to use if you are new to sweeping and want to get used to the basic different positions. The lick is played in a triplet rhythm.

Tuning: E Standard
Key: D
BPM: 170 (Adjust if you want)
e|----------14-17-14--------------------9-12-9--------------------|
B|--------15---------15---------------10-------10-----------------|
G|-----14--------------14------------9-----------9----------------|
D|---16------------------16--------11-------------11--------------|
A|-17----------------------17----12-----------------12------------|
E|----------------------------------------------------------------|

e|---------10-14-10--------------------5-9-5----------------------|
B|-------12--------12----------------7-------7--------------------|
G|-----11------------11------------6----------6-------------------|
D|---12----------------12--------7--------------7-----------------|
A|-14--------------------14----9-----------------9----------------|
E|----------------------------------------------------------------|

e|---------7-10-7-----------------2-5-2---------------------------|
B|-------8--------8-------------3--------3------------------------|
G|-----7-----------7----------2------------2----------------------|
D|---9--------------9-------4----------------4--------------------|
A|-10----------------10---5--------------------5------------------|
E|----------------------------------------------------------------|

e|---------7-10-7----------------------9-12-9---------------------|
B|-------8--------8-----------------10--------10------------------|
G|-----7------------7-------------9--------------9----------------|
D|---9----------------9--------11------------------11-------------|
A|-10------------------10----12----------------------12-----------|
E|----------------------------------------------------------------|

Lesson


Performance


Hope you find this useful. Any errors please let me know at: dancoleguitarist@gmail.com

More DanColeGuitar lessons:
+ Harmonics Lesson - Super Mario Coin Sound Effect For Beginners 10/14/2014
+ 3 Note Per String Warm Up Lick by Dan Cole Soloing 10/02/2014
+ General Lee Car Horn Sound Effect Lesson For Beginners 09/15/2014
Comments
Your captcha is incorrect