Arpeggio, Pentatonic and 8 Finger Tapping

author: bumblebear date: 02/12/2014 category: guitar techniques
rating: 8 / votes: 1 
Arpeggio, Pentatonic and 8 Finger Tapping
Hello guys!

I recently bought Chris Broderick's pick clip and started creating exercises and practicing 8 finger tapping licks.

This is a lick I use to practice 8 finger tapping! Tell me if you like it!


T T T T 
E||-------------------7-10s-15p--10h-12h-15p-12p-10h-12h-15h-17h-19h-22p-19p-
B||-----------------8--------------------------------------------------------
G||---------------7----------------------------------------------------------
D||-------------9------------------------------------------------------------
A||----2h-5s-10--------------------------------------------------------------
E||--3-----------------------------------------------------------------------
T
E||--17p-15p-12p-10p----------------------------------
B||------------------12h-15p-12p-10-------------------
G||---------------------------------12s-14---9s-12v---
D||---------------------------------------------------
A||---------------------------------------------------
E||---------------------------------------------------
You could also check it on video! :)

Comments
Your captcha is incorrect