Dimebag Darrell Techniques Intros

author: Nbiegs42 date: 01/21/2013 category: guitar techniques
rating: 1.3 / votes: 10 
Dimebag Darrell Techniques Intros
Hey guys this is my first lesson. Here are some throes of the late great Dimebag Darrell. Dime used numerous scales in every shapes and forums in his heavy solid riffs and ear blasting solos. Here are some intros: Now take the "Cowboys From Hell" intro:
1-----------------------------------------------------
2-----------------------------------------------------
3-----------------------------------------------------
4------------------------------------------------12---
5-----------------12--12--13--12---13h14--------------
6--12-15-12-15--15--15--15--15------------------------
A amazing intro and a kick a-s riff Dime is using the E Pentatonic Scale with the root on 12. Dime uses the blues scale more than most scales and the Aeolian scale. Also here's the intro to "Walk":
1-------------------------------------------------
2-------------------------------------------------
3-------------------------------------------------
4-------------------------------------------------
5------------8------------6------------8-1-3-4-3-1
6--0-1p0-08--0-1p0-06-0-1p0-08-1-3-4-3-1----------
A metal as hell intro to a song that's legendary bad a-s. Here's "Cemetery Gates" Intro:
1---------------------------------0-------
2-----2--------0-0-------0----2--2--------
3----2-2-----4----4----4-4-4-----4--------
4---2---2---2----------2---0--------------
5--4------------------0-------------------
6-2-------0-------------------------------
A almost "Stairway To Heaven" intro - a amazing intro nun the less: "This Love" Intro:
1----------------------
2----------------------
3-------------2----2---
4---2---2---4---4------
5--4---4---2---3-------
6-2---3----------------
Again Dime's amazing talent shows through here. Thank you for your time I'll be posting more on riff and solos etc. Thanks, Noah.
Comments
Your captcha is incorrect