Playing Arpeggios Fast. Part 3 - Arpeggios From Hell

author: 0000409D date: 11/24/2003 category: guitar techniques
rating: 3.2 / votes: 30 
Well I got a song I transcribed from which I downloaded from the net, and he got the idea of the title of the song from yngwie malmsteens "Arpeggios from Hell". I think, thats why his title for this is ArpHell. Hes not to humble to share the tab so I transcribed it to give you exercises on arpeggios.
ARPHELL

Q=150
4/4
Gtr I
S S S S S S S S S S S S S S S S
|-15p12----------12-15p12----------12-14p12----12-|
|-------13-12-13----------13-12-13----------13----|
|-------------------------------------------------|
|-------------------------------------------------|
|-------------------------------------------------|
|-------------------------------------------------|


S S S S S S S S S S S S S S S S
|-15p12----------12-14p12----------12-15p12----12--|
|-------13-12-13----------13-12-13----------13-----|
|--------------------------------------------------|
|--------------------------------------------------|
|--------------------------------------------------|
|--------------------------------------------------|


S S S S S S S S S S S S S S S S
|-15p12--------------12-15p12----------12-14p12----12-|
|----------13-12--13----------13-12-13----------13----|
|-----------------------------------------------------|
|-----------------------------------------------------|
|-----------------------------------------------------|
|-----------------------------------------------------|
|
| Gtr II
| W
|-----------------------------------------------------|
|-----------------------------------------------------|
|-----------------------------------------------------|
|-----------------------------------------------------|
|-----------------------------------------------------|
|-----------------------------------------------------|
|
| Gtr III
| S. S. H. S
|-----------------------------------------------------|
|-----------------------------------------------------|
|--5----5---------------------------------------------|
|--5----5---------------------------------------------|
|--3----3---------------------------------------------|
|--3----3---------------------------------------------|


S S S S S S S S S S S S S S S S
|-15p12----------12-14p12----------12-15p12----12--|
|-------13-12-13----------13-12-13----------13-----|
|--------------------------------------------------|
|--------------------------------------------------|
|--------------------------------------------------|
|--------------------------------------------------|
|
| W
|--------------------------------------------------|
|--------------------------------------------------|
|--------------------------------------------------|
|--------------------------------------------------|
|--------------------------------------------------|
|--------------------------------------------------|
|
| W
|--------------------------------------------------|
|--------------------------------------------------|
|--------------------------------------------------|
|--------------------------------------------------|
|--------------------------------------------------|
|--------------------------------------------------|


S S S S S S S S S S S S S S S S
|-15p12-----------12-15p12----------12-14p12-----12-|
|--------13-12-13----------13-12-13-----------13----|
|---------------------------------------------------|
|---------------------------------------------------|
|---------------------------------------------------|
|---------------------------------------------------|
|
| S S S S S S S S S S S S S S S S
|-20p15-----------15-20p15----------15-19p15-----15-|
|--------17-15-17----------17-15-17-----------17----|
|---------------------------------------------------|
|---------------------------------------------------|
|---------------------------------------------------|
|---------------------------------------------------|
|
| S H. E.
|---------------------------------------------------|
|---------------------------------------------------|
|---------------------------------------------------|
|-10------------------------------------------------|
|-10------------------------------------------------|
|--8------------------------------------------------|


S S S S S S S S S S S S S S S S
|-15p12----------12-14p12----------12-15p12----12-|
|-------13-12-13----------13-12-13----------13----|
|-------------------------------------------------|
|-------------------------------------------------|
|-------------------------------------------------|
|-------------------------------------------------|
|
| S S S S S S S S S S S S S S S S
|-20p15----------15-19p15----------15-20p15----15-|
|-------17-15-17----------17-15-17----------17----|
|-------------------------------------------------|
|-------------------------------------------------|
|-------------------------------------------------|
|-------------------------------------------------|
|
| W
|-------------------------------------------------|
|-------------------------------------------------|
|-------------------------------------------------|
|-------------------------------------------------|
|-------------------------------------------------|
|-------------------------------------------------|


S S S S S S S S S S S S S S S S
|-15p12----------12-15p12----------12-14p12----12-|
|-------13-12-13----------13-12-13----------13----|
|-------------------------------------------------|
|-------------------------------------------------|
|-------------------------------------------------|
|-------------------------------------------------|
|
| S S S S S S S S S S S S S S S S
|-20p15----------15-20p15----------15-19p15----15-|
|-------17-15-17----------17-15-17----------17----|
|-------------------------------------------------|
|-------------------------------------------------|
|-------------------------------------------------|
|-------------------------------------------------|
|
| W
|-------------------------------------------------|
|-------------------------------------------------|
|--5----------------------------------------------|
|--5----------------------------------------------|
|--3----------------------------------------------|
|--3----------------------------------------------|


S S S S S S S S S S S S S S S S
|-15p=12----------12-14p12----------12-15p12----12-|
|--------13-12-13----------13-12-13----------13----|
|--------------------------------------------------|
|--------------------------------------------------|
|--------------------------------------------------|
|--------------------------------------------------|
|
| S S S S S S S S S S S S S S S S
|-20p=15----------15-19p15----------15-20p15----15-|
|--------17-15-17----------17-15-17----------17----|
|--------------------------------------------------|
|--------------------------------------------------|
|--------------------------------------------------|
|--------------------------------------------------|
|
| +W
|--------------------------------------------------|
|--------------------------------------------------|
|-(5)----------------------------------------------|
|-(5)----------------------------------------------|
|-(3)----------------------------------------------|
|-(3)----------------------------------------------|


S S S S S S S S S S S S S S S S
|-15p12-----------12-15p12----------12-14p12----12-|
|-------13--12-13----------13-12-13----------13----|
|--------------------------------------------------|
|--------------------------------------------------|
|--------------------------------------------------|
|--------------------------------------------------|
|
| S S S S S S S S S S S S S S S S
|-20p15-----------15-20p15----------15-19p15----15-|
|-------17--15-17----------17-15-17----------17----|
|--------------------------------------------------|
|--------------------------------------------------|
|--------------------------------------------------|
|--------------------------------------------------|
|
| E H. E
|--------------------------------------------------|
|--------------------------------------------------|
|--5-----------------------------------------------|
|--5-----------------------------------------------|
|--3-----------------------------------------------|
|--3-----------------------------------------------|


S S S S S S S S S S S S S S S S
|-15p12----------12-14p12----------12-15p12----12-|
|-------13-12-13----------13-12-13----------13----|
|-------------------------------------------------|
|-------------------------------------------------|
|-------------------------------------------------|
|-------------------------------------------------|
|
| S S S S S S S S S S S S S S S S
|-20p15----------15-19p15----------15-20p15----15-|
|-------17-15-17----------17-15-17----------17----|
|-------------------------------------------------|
|-------------------------------------------------|
|-------------------------------------------------|
|-------------------------------------------------|
|
| W
|-------------------------------------------------|
|-------------------------------------------------|
|-------------------------------------------------|
|-------------------------------------------------|
|-------------------------------------------------|
|-------------------------------------------------|


S S S S S S S S S S S S S S S S
|-15p12-----------12-15p12----------12-14p12----12-|
|-------13-12--13----------13-12-13----------13----|
|--------------------------------------------------|
|--------------------------------------------------|
|--------------------------------------------------|
|--------------------------------------------------|
|
| S S S S S S S S S S S S S S S S
|-20p15-----------15-20p15----------15-19p15----15-|
|-------17-15--17----------17-15-17----------17----|
|--------------------------------------------------|
|--------------------------------------------------|
|--------------------------------------------------|
|--------------------------------------------------|
|
| S S S H. S
|--------------------------------------------------|
|--------------------------------------------------|
|--------------------------------------------------|
|-10-10-10-----------------------------------------|
|-10-10-10-----------------------------------------|
|--8--8--8-----------------------------------------|


S S S S S S S S S S S S S S S S
|-15p12----------12-14p12----------12-15p12----12-|
|-------13-12-13----------13-12-13----------13----|
|-------------------------------------------------|
|-------------------------------------------------|
|-------------------------------------------------|
|-------------------------------------------------|
|
| S S S S S S S S S S S S S S S S
|-20p15----------15-19p15----------15-20p15----15-|
|-------17-15-17----------17-15-17----------17----|
|-------------------------------------------------|
|-------------------------------------------------|
|-------------------------------------------------|
|-------------------------------------------------|
|
| W
|-------------------------------------------------|
|-------------------------------------------------|
|-------------------------------------------------|
|-------------------------------------------------|
|-------------------------------------------------|
|-------------------------------------------------|


S S S S S S S S S S S S S S S S
|-15p12----------12-15p12----------12-14p12----12-|
|-------13-12-13----------13-12-13----------13----|
|-------------------------------------------------|
|-------------------------------------------------|
|-------------------------------------------------|
|-------------------------------------------------|
|
| S S S S S S S S S S S S S S S S
|-20p15----------15-20p15----------15-19p15----15-|
|-------17-15-17----------17-15-17----------17----|
|-------------------------------------------------|
|-------------------------------------------------|
|-------------------------------------------------|
|-------------------------------------------------|
|
| W
|-------------------------------------------------|
|-------------------------------------------------|
|--5----------------------------------------------|
|--5----------------------------------------------|
|--3----------------------------------------------|
|--3----------------------------------------------|


S S S S S S S S S S S S S S S S
|-15p=12----------12-14p12----------12-15p12----12-|
|--------13-12-13----------13-12-13----------13----|
|--------------------------------------------------|
|--------------------------------------------------|
|--------------------------------------------------|
|--------------------------------------------------|
|
| S S S S S S S S S S S S S S S S
|-20p=15----------15-19p15----------15-20p15----15-|
|--------17-15-17----------17-15-17----------17----|
|--------------------------------------------------|
|--------------------------------------------------|
|--------------------------------------------------|
|--------------------------------------------------|
|
| +W
|--------------------------------------------------|
|--------------------------------------------------|
|-(5)----------------------------------------------|
|-(5)----------------------------------------------|
|-(3)----------------------------------------------|
|-(3)----------------------------------------------|


S S S S S S S S S S S S S S S S
|-15p12--------------12-15p12----------12-14p12----12-|
|----------13-12--13----------13-12-13----------13----|
|-----------------------------------------------------|
|-----------------------------------------------------|
|-----------------------------------------------------|
|-----------------------------------------------------|
|
| S S S S S S S S S S S S S S S S
|-20p15--------------15-20p15----------15-19p15----15-|
|----------17-15--17----------17-15-17----------17----|
|-----------------------------------------------------|
|-----------------------------------------------------|
|-----------------------------------------------------|
|-----------------------------------------------------|
|
| S. S. H. S
|-----------------------------------------------------|
|-----------------------------------------------------|
|--5----5---------------------------------------------|
|--5----5---------------------------------------------|
|--3----3---------------------------------------------|
|--3----3---------------------------------------------|


S S S S S S S S S S S S S S S S
|-15p12----------12-14p12----------12-15p12----12--|
|-------13-12-13----------13-12-13----------13-----|
|--------------------------------------------------|
|--------------------------------------------------|
|--------------------------------------------------|
|--------------------------------------------------|
|
| S S S S S S S S S S S S S S S S
|-20p15----------15-19p15----------15-20p15----15--|
|-------17-15-17----------17-15-17----------17-----|
|--------------------------------------------------|
|--------------------------------------------------|
|--------------------------------------------------|
|--------------------------------------------------|
|
| W
|--------------------------------------------------|
|--------------------------------------------------|
|--------------------------------------------------|
|--------------------------------------------------|
|--------------------------------------------------|
|--------------------------------------------------|


|-3-| |-3--| |-3--| |-3-| |--3--| |--3--| |--3--| |--3--|
S S S S S S S S S S S S S S S S S S S S S S S S
|-12p7---------------------7-15p12----------------------------12-|
|------8-----------------8---------12----------------------12----|
|--------9-------------9--------------12----------------12-------|
|----------9---------9-------------------14----------14----------|
|------------10-7h10------------------------14----14-------------|
|----------------------------------------------15----------------|
|
| |-3-| |-3--| |-3--| |-3-| |--3--| |--3--| |--3--| |--3--|
| S S S S S S S S S S S S S S S S S S S S S S S S
|-12p7---------------------7-15p12----------------------------12-|
|------8-----------------8---------12----------------------12----|
|--------9-------------9--------------12----------------12-------|
|----------9---------9-------------------14----------14----------|
|------------10-7h10------------------------14----14-------------|
|----------------------------------------------15----------------|
|
| |---3---| |---3----| |-----3-----| |-----3-----|
| E E E E E E E E E E E E
|----------------------------------------------------------------|
|----------------------------------------------------------------|
|----------------------------------------------------------------|
|--9------------9-------------------------9-----------------9----|
|--7------------7-------------------------7-----------------7----|
|------0---0---------0---0----0-----------------0-----0----------|


|--3--| |--3--| |--3--| |--3--| |--3--|
S S S S S S S S S S S S E E E Q
|-19p15----------------------------15-24p19-----------|
|-------17----------------------17----------20--------|
|----------16----------------16----------------21-----|
|-------------17----------17--------------------------|
|----------------19----19-----------------------------|
|-------------------19--------------------------------|
|
| |--3--| |--3--| |--3--| |--3--| |--3--|
| S S S S S S S S S S S S E E E Q
|-19p15----------------------------15-24p19-----------|
|-------17----------------------17----------20--------|
|----------16----------------16----------------21-----|
|-------------17----------17--------------------------|
|----------------19----19-----------------------------|
|-------------------19--------------------------------|
|
| |-----3-----| |-----3-----| |--3--|
| E E E E E E E E E E E
|-----------------------------------------------------|
|-----------------------------------------------------|
|-----------------------------------------------------|
|--------------9--------------------------9-------9---|
|--------------7--------------------------7-------7---|
|--0-----0-----------------0-----0-----0-----0--0-----|


T
|--3--| |--3--| |--3--| |--3--| |--3--| |--3--| |--3--| |--3--|
S S S S S S S S S S S S S S S S S S S S S S S S
|-15p12----------------------------12h15h20p15p12----------------------12-|
|-------13----------------------13----------------13----------------13----|
|----------12----------------12----------------------12----------12-------|
|-------------14----------14----------------------------14----14----------|
|----------------15----15----------------------------------15-------------|
|-------------------15----------------------------------------------------|
|
| T
| |--3--| |--3--| |--3--| |--3--| |--3--| |--3--| |--3--| |--3--|
| S S S S S S S S S S S S S S S S S S S S S S S S
|-15p12----------------------------12h15h20p15p12----------------------12-|
|-------13----------------------13----------------13----------------13----|
|----------12----------------12----------------------12----------12-------|
|-------------14----------14----------------------------14----14----------|
|----------------15----15----------------------------------15-------------|
|-------------------15----------------------------------------------------|
|
| |-----3-----| |-----3-----| |-----3-----| |-----3-----|
| E E E E E E E E E E E E
|-------------------------------------------------------------------------|
|-------------------------------------------------------------------------|
|-------------------------------------------------------------------------|
|--5-----------------5-----------------------------5-----------------5----|
|--3-----3-----3-----3-----3-----3-----3-----------3-----3-----3-----3----|
|-------------------------------------------------------------------------|


T
|--3--| |--3--| |--3--| |--3--| |--3--| |--3--| |--3--| |--3--|
S S S S S S S S S S S S S S S S S S S S S S S S
|-15p12----------------------------12h15h20p15p12----------------------12--|
|-------13----------------------13----------------13----------------13-----|
|----------12----------------12----------------------12----------12--------|
|-------------14----------14----------------------------14----14-----------|
|----------------15----15----------------------------------15--------------|
|-------------------15-----------------------------------------------------|
|
| T
| |--3--| |--3--| |--3--| |--3--| |--3--| |--3--| |--3--| |--3--|
| S S S S S S S S S S S S S S S S S S S S S S S S
|-15p12----------------------------12h15h20p15p12----------------------12--|
|-------13----------------------13----------------13----------------13-----|
|----------12----------------12----------------------12----------12--------|
|-------------14----------14----------------------------14----14-----------|
|----------------15----15----------------------------------15--------------|
|-------------------15-----------------------------------------------------|
|
| |-----3-----| |-----3-----| |-----3-----|
| E E E E E E E E E E E
|--------------------------------------------------------------------------|
|--------------------------------------------------------------------------|
|--------------------------------------------------------------------------|
|--------------------------5-----------------5--------------------5--------|
|--3-----3-----3-----------3-----3-----3-----3-----3-----3--------3--------|
|--------------------------------------------------------------------------|


T
|--3--| |--3--| |--3--| |--3--| |--3--| |--3--| |--3--| |--3--|
S S S S S S S S S S S S S S S S S S S S S S S S
|-17p12----------------------------12h17h20p17p12----------------------12h|
|-------13----------------------13----------------13----------------13----|
|----------14----------------14----------------------14----------14-------|
|-------------14----------14----------------------------14----14----------|
|----------------15-12h15----------------------------------15-------------|
|-------------------------------------------------------------------------|
|
| T
| |--3--| |--3--| |--3--| |--3--| |--3--| |--3--| |--3--| |--3--|
| S S S S S S S S S S S S S S S S S S S S S S S S
|-17p12----------------------------12h17h20p17p12----------------------12h|
|-------13----------------------13----------------13----------------13----|
|----------14----------------14----------------------14----------14-------|
|-------------14----------14----------------------------14----14----------|
|----------------15-12h15----------------------------------15-------------|
|-------------------------------------------------------------------------|
|
| |-----3-----| |-----3-----| |-----3-----| |-----3-----|
| E E E E E E E E E E E E
|-------------------------------------------------------------------------|
|-------------------------------------------------------------------------|
|--2-----------------2-----------------------------2-----------------2----|
|--2-----------------2-----------------------------2-----------------2----|
|--0-----0-----0-----0-----0-----0-----0-----------0-----0-----0-----0----|
|-------------------------------------------------------------------------|


T T
|--3--| |--3--| |--3--| |--3--| |--3--| |--3--| |--3--| |--3--|
S S S S S S S S S S S S S S S S S S S S S S S S
|-17h22p17p12----------------------12h17h20p17p12----------------------12--|
|-------------13----------------13----------------13----------------13-----|
|----------------14----------14----------------------14----------14--------|
|-------------------14----14----------------------------14----14-----------|
|----------------------15----------------------------------15--------------|
|--------------------------------------------------------------------------|
|
| T T
| |--3--| |--3--| |--3--| |--3--| |--3--| |--3--| |--3--| |--3--|
| S S S S S S S S S S S S S S S S S S S S S S S S
|-17h22p17p12----------------------12h17h20p17p12----------------------12--|
|-------------13----------------13----------------13----------------13-----|
|----------------14----------14----------------------14----------14--------|
|-------------------14----14----------------------------14----14-----------|
|----------------------15----------------------------------15--------------|
|--------------------------------------------------------------------------|
|
| |-----3-----| |-----3-----| |-----3-----|
| E E E E E E E E E E E
|--------------------------------------------------------------------------|
|--------------------------------------------------------------------------|
|--------------------------2-----------------2--------------------2--------|
|--------------------------2-----------------2--------------------2--------|
|--0-----0-----0-----------0-----0-----0-----0-----0-----0--------0--------|
|--------------------------------------------------------------------------|


|--3--| |--3--| |--3--| |--3--| |--3--| |--3--| |--3--| |--3--|
S S S S S S S S S S S S S S S S S S S S S S S S
|-14p11----------------------------11-19p14----------------------------14-|
|-------12----------------------12----------16----------------------16----|
|----------11----------------11----------------16----------------16-------|
|-------------13----------13----------------------16----------16----------|
|----------------14----14----------------------------18-14h18-------------|
|-------------------14----------------------------------------------------|
|
| |--3--| |--3--| |--3--| |--3--| |--3--| |--3--| |--3--| |--3--|
| S S S S S S S S S S S S S S S S S S S S S S S S
|-14p11----------------------------11-19p14----------------------------14-|
|-------12----------------------12----------16----------------------16----|
|----------11----------------11----------------16----------------16-------|
|-------------13----------13----------------------16----------16----------|
|----------------14----14----------------------------18-14h18-------------|
|-------------------14----------------------------------------------------|
|
| |-----3-----| |-----3-----| |-----3-----| |-----3-----|
| E E E E E E E E E E E E
|-------------------------------------------------------------------------|
|-------------------------------------------------------------------------|
|--4-----------------4-----------------------------4-----------------4----|
|--4-----------------4-----------------------------4-----------------4----|
|--2-----2-----2-----2-----2-----2-----2-----------2-----2-----2-----2----|
|-------------------------------------------------------------------------|


|--3--| |--3--| |--3--| |--3--|
S S S S S S S S S S S Q +Q.
|-19p14----------------------14-19S23-----(23)--------|
|-------16----------------16--------------------------|
|----------16----------16-----------------------------|
|-------------16----16--------------------------------|
|----------------18-----------------------------------|
|-----------------------------------------------------|
|
| |--3--| |--3--| |--3--| |--3--|
| S S S S S S S S S S S Q +Q.
|-19p14----------------------14-19S23-----(23)--------|
|-------16----------------16--------------------------|
|----------16----------16-----------------------------|
|-------------16----16--------------------------------|
|----------------18-----------------------------------|
|-----------------------------------------------------|
|
| |-----3-----| |-----3-----| |---3----|
| E E E E E E E E E E E
|-----------------------------------------------------|
|-----------------------------------------------------|
|--------------------------4------------4----------4--|
|--------------------------4------------4----------4--|
|--2-----2-----2-----------2-----2----2-2------2-2-2--|
|-----------------------------------------------------|


S S S S S S S S S S S S S S S S
|-24p19--------------19---24p==19-19p15--------------15---19p==15-|
|---------20------20----------------------17------17--------------|
|--------------21------------------------------16-----------------|
|-----------------------------------------------------------------|
|-----------------------------------------------------------------|
|-----------------------------------------------------------------|
|
| S S S S S S S S S S S S S S S S
|-24p19--------------19---24p==19-19p15--------------15---19p==15-|
|---------20------20----------------------17------17--------------|
|--------------21------------------------------16-----------------|
|-----------------------------------------------------------------|
|-----------------------------------------------------------------|
|-----------------------------------------------------------------|
|
| |----3----| |----3----| |----3----| |----3----|
| E E E E E E E E E E E E
|-----------------------------------------------------------------|
|-----------------------------------------------------------------|
|-----------------------------------------------------------------|
|--9---------------9-------------------------9---------------9----|
|--7---------------7-------------------------7---------------7----|
|-------0----0----------0----0-----0---------------0----0---------|


S S S S S S S S S S S S S S S S
|-15p12--------------12---15p==12-12p7-----------7-12p7-|
|---------12------12---------------------8-----8--------|
|--------------12----------------------------9----------|
|-------------------------------------------------------|
|-------------------------------------------------------|
|-------------------------------------------------------|
|
| S S S S S S S S S S S S S S S S
|-15p12--------------12---15p==12-12p7-----------7-12p7-|
|---------12------12---------------------8-----8--------|
|--------------12----------------------------9----------|
|-------------------------------------------------------|
|-------------------------------------------------------|
|-------------------------------------------------------|
|
| |----3----| |----3----| |---3---|
| E E E E E E E E E E E
|-------------------------------------------------------|
|-------------------------------------------------------|
|-------------------------------------------------------|
|-----------------------9--------------9------------9---|
|-----------------------7--------------7------------7---|
|--0----0----0---------------0-----0-------0---0--------|


T
|--3--| |--3--| |--3--| |--3--| |--3--| |--3--| |--3--| |--3--|
S S S S S S S S S S S S S S S S S S S S S S S S
|-15p12----------12-15p12----------------------------12h15h20p15p12-------|
|-------13----13----------13----------------------13----------------13----|
|----------12----------------12----------------12----------------------12-|
|-------------------------------14----------14----------------------------|
|----------------------------------15----15-------------------------------|
|-------------------------------------15----------------------------------|
|
| T
| |--3--| |--3--| |--3--| |--3--| |--3--| |--3--| |--3--| |--3--|
| S S S S S S S S S S S S S S S S S S S S S S S S
|-15p12----------12-15p12----------------------------12h15h20p15p12-------|
|-------13----13----------13----------------------13----------------13----|
|----------12----------------12----------------12----------------------12-|
|-------------------------------14----------14----------------------------|
|----------------------------------15----15-------------------------------|
|-------------------------------------15----------------------------------|
|
| |-----3-----| |-----3-----| |-----3-----| |-----3-----|
| E E E E E E E E E E E E
|-------------------------------------------------------------------------|
|-------------------------------------------------------------------------|
|-------------------------------------------------------------------------|
|--5-----------------5-----------------------------5-----------------5----|
|--3-----3-----3-----3-----3-----3-----3-----------3-----3-----3-----3----|
|-------------------------------------------------------------------------|


T
|--3--| |--3--| |--3--| |--3--| |--3---|
S S S S S S S S S S S S S S +S +Q.
|----------------12h15h20p15p12-----------------------------|
|-------------13----------------13--------------------------|
|----------12----------------------12-----------------------|
|-14----14----------------------------14--------------------|
|----15----------------------------------15-(15)-(15)-------|
|-----------------------------------------------------------|
|
| T
| |--3--| |--3--| |--3--| |--3--| |--3---|
| S S S S S S S S S S S S S S +S +Q.
|----------------12h15h20p15p12-----------------------------|
|-------------13----------------13--------------------------|
|----------12----------------------12-----------------------|
|-14----14----------------------------14--------------------|
|----15----------------------------------15-(15)-(15)-------|
|-----------------------------------------------------------|
|
| |-----3-----| |-----3-----| |------3-------|
| E E E E E E E E E E E
|-----------------------------------------------------------|
|-----------------------------------------------------------|
|-----------------------------------------------------------|
|--------------------------5------------------5-----------5-|
|--3-----3-----3-----------3-----3-----3------3-------3-3-3-|
|-----------------------------------------------------------|


S S S S S S S S S S S S S S S S
|-----------------------------------------------------------------|
|-----------------------------------------------------------------|
|--------------------------------------------------------------14-|
|--------------12-14-15--------------14---15---17-14-15---17------|
|-12-14---15--------------14---15-17------------------------------|
|-----------------------------------------------------------------|
|
| S S S S S S S S S S S S S S S S
|-----------------------------------------------------------------|
|-----------------------------------------------------------------|
|--------------------------------------------------------------14-|
|--------------12-14-15--------------14---15---17-14-15---17------|
|-12-14---15--------------14---15-17------------------------------|
|-----------------------------------------------------------------|
|
| |----3----| |----3----| |----3----| |----3----|
| E E E E E E E E E E E E
|-----------------------------------------------------------------|
|-----------------------------------------------------------------|
|--2---------------2-------------------------2---------------2----|
|--2---------------2-------------------------2---------------2----|
|--0----0----0-----0----0----0-----0---------0-----0----0----0----|
|-----------------------------------------------------------------|


S S S S S S S S S S S S S S S S
|-------------------------------------------------------------|
|----------------------------------------------17-18-20-18-17-|
|-16-17--------------16---17---19-16-17---19------------------|
|---------15---17-19------------------------------------------|
|-------------------------------------------------------------|
|-------------------------------------------------------------|
|
| S S S S S S S S S S S S S S S S
|-------------------------------------------------------------|
|----------------------------------------------17-18-20-18-17-|
|-16-17--------------16---17---19-16-17---19------------------|
|---------15---17-19------------------------------------------|
|-------------------------------------------------------------|
|-------------------------------------------------------------|
|
| |----3----| |----3----| |----3----|
| E E E E E E E E E E E
|-------------------------------------------------------------|
|-------------------------------------------------------------|
|-----------------------2---------------2----------------2----|
|-----------------------2---------------2----------------2----|
|--0----0----0----------0----0-----0----0----0-----0-----0----|
|-------------------------------------------------------------|


|--3--| |--3--| |--3--| |--3--| |--3--| |--3--| |--3--| |--3--|
S S S S S S S S S S S S S S S S S S S S S S S S
|-13p10----------10-13p10-13S16p13----------13-16p13-16S19p16----------16-|
|-------12----12-------------------15----15-------------------18----18----|
|----------13-------------------------16-------------------------19-------|
|-------------------------------------------------------------------------|
|-------------------------------------------------------------------------|
|-------------------------------------------------------------------------|
|
| |--3--| |--3--| |--3--| |--3--| |--3--| |--3--| |--3--| |--3--|
| S S S S S S S S S S S S S S S S S S S S S S S S
|-13p10----------10-13p10-13S16p13----------13-16p13-16S19p16----------16-|
|-------12----12-------------------15----15-------------------18----18----|
|----------13-------------------------16-------------------------19-------|
|-------------------------------------------------------------------------|
|-------------------------------------------------------------------------|
|-------------------------------------------------------------------------|
|
| |-----3-----| |-----3-----| |-----3-----| |-----3-----|
| E E E E E E E E E E E E
|-------------------------------------------------------------------------|
|-------------------------------------------------------------------------|
|--4-----------------4-----------------------------4-----------------4----|
|--4-----------------4-----------------------------4-----------------4----|
|--2-----2-----2-----2-----2-----2-----2-----------2-----2-----2-----2----|
|-------------------------------------------------------------------------|


|--3--| |--3--| |--3--|
S S S S S S S S S Q +Q.
|-19p16-19S22p19----------19-22-------(22)---------|
|----------------21----21--------------------------|
|-------------------22-----------------------------|
|--------------------------------------------------|
|--------------------------------------------------|
|--------------------------------------------------|
|
| |--3--| |--3--| |--3--|
| S S S S S S S S S Q +Q.
|-19p16-19S22p19----------19-22-------(22)---------|
|----------------21----21--------------------------|
|-------------------22-----------------------------|
|--------------------------------------------------|
|--------------------------------------------------|
|--------------------------------------------------|
|
| |-----3-----| |----3-----| |---3----|
| E E E E E E E E E E E
|--------------------------------------------------|
|--------------------------------------------------|
|--------------------------4--------4----------4---|
|--------------------------4--------4----------4---|
|--2-----2-----2-----------2----2-2-2------2-2-2---|
|--------------------------------------------------|


S S S S S S S S S S S S S S S S
|-17p12--------------12---17p==12--------------12-15p12--------12-|
|---------13------13--------------13-12---13--------------13------|
|--------------14-------------------------------------------------|
|-----------------------------------------------------------------|
|-----------------------------------------------------------------|
|-----------------------------------------------------------------|
|
| S S S S S S S S S S S S S S S S
|-12p=8---------------8---12p===8---------------8-10p=8---------8-|
|---------10------10--------------10--8---10--------------10------|
|---------------9-------------------------------------------------|
|-----------------------------------------------------------------|
|-----------------------------------------------------------------|
|-----------------------------------------------------------------|
|
| |----3----| |----3----| |----3----| |----3----|
| E E E E E E E E E E E E
|-----------------------------------------------------------------|
|-----------------------------------------------------------------|
|--2---------------2-------------------------2---------------2----|
|--2---------------2-------------------------2---------------2----|
|--0----0----0-----0----0----0-----0---------0-----0----0----0----|
|-----------------------------------------------------------------|


S S S S S S S S S S S S S S S S
|-17p12--------------12---17p==12--------------12-15p12----12-|
|---------13------13--------------13-12---13------------13----|
|--------------14---------------------------------------------|
|-------------------------------------------------------------|
|-------------------------------------------------------------|
|-------------------------------------------------------------|
|
| S S S S S S S S S S S S S S S S
|-12p=8---------------8---12p===8---------------8-10p=8-----8-|
|---------10------10--------------10--8---10------------10----|
|---------------9---------------------------------------------|
|-------------------------------------------------------------|
|-------------------------------------------------------------|
|-------------------------------------------------------------|
|
| |----3----| |----3----| |----3----|
| E E E E E E E E E E E
|-------------------------------------------------------------|
|-------------------------------------------------------------|
|-----------------------2---------------2----------------2----|
|-----------------------2---------------2----------------2----|
|--0----0----0----------0----0-----0----0----0-----0-----0----|
|-------------------------------------------------------------|


S S S S S S S S S S S S S S S S
|-15p10--------------10---15p==10--------------10-12p10--------10-|
|---------12------12--------------12-10---12--------------12------|
|--------------12-------------------------------------------------|
|-----------------------------------------------------------------|
|-----------------------------------------------------------------|
|-----------------------------------------------------------------|
|
| S S S S S S S S S S S S S S S S
|-10p=7---------------7---10p===7---------------7--8p=7---------7-|
|----------8-------8---------------8--7----8---------------8------|
|---------------7-------------------------------------------------|
|-----------------------------------------------------------------|
|-----------------------------------------------------------------|
|-----------------------------------------------------------------|
|
| |----3----| |----3----| |----3----| |----3----|
| E E E E E E E E E E E E
|-----------------------------------------------------------------|
|-----------------------------------------------------------------|
|-----------------------------------------------------------------|
|--5---------------5-------------------------5---------------5----|
|--5---------------5-------------------------5---------------5----|
|--3----3----3-----3----3----3-----3---------3-----3----3----3----|


S S S S S S S S S S S S S S S S
|-15p10--------------10---15p==10----------12---------------|
|---------12------12--------------12-10-12----12-10-12-10---|
|--------------12-------------------------------------------|
|-----------------------------------------------------------|
|-----------------------------------------------------------|
|-----------------------------------------------------------|
|
| S S S S S S S S S S S S S S S S
|-10p=7---------------7---10p===7-----------7---------------|
|----------8-------8---------------8--7--8-----8--7--8--7---|
|---------------7-------------------------------------------|
|-----------------------------------------------------------|
|-----------------------------------------------------------|
|-----------------------------------------------------------|
|
| |----3----| |----3----|
| E E E E E E E E E E
|-----------------------------------------------------------|
|-----------------------------------------------------------|
|-----------------------------------------------------------|
|-----------------------5-----------------------------------|
|-----------------------5-----------------------------------|
|--3----3----3----------3----2-----3-----2-----3-----2------|


E H Q.
|---------------|
|---------------|
|-12------------|
|---------------|
|---------------|
|---------------|
|
| E H Q.
|---------------|
|---------------|
|--9------------|
|---------------|
|---------------|
|---------------|
|
| E H Q.
|---------------|
|---------------|
|---------------|
|--2------------|
|--2------------|
|--0------------|


S S S S S S S S S S S S S S S S
|-15p12----------12-15p12----------12-14p12----12-|
|-------13----13----------13-12-13----------13----|
|----------12-------------------------------------|
|-------------------------------------------------|
|-------------------------------------------------|
|-------------------------------------------------|
|
| S S S S S S S S S S S S S S S S
|-20p15----------15-20p15----------15-17p15----15-|
|-------17----17----------17-15-17----------17----|
|----------17-------------------------------------|
|-------------------------------------------------|
|-------------------------------------------------|
|-------------------------------------------------|
|
| E S S E E S S E E E
|-------------------------------------------------|
|-------------------------------------------------|
|-------------------------------------------------|
|--5-----------------5-----------------------5----|
|--3-----3--3--3-----3-----3--3--3-----3-----3----|
|-------------------------------------------------|


S S S S S S S S S S S S S S S S
|-15p12----------12-15p12----------12-14p12----12-|
|-------13----13----------13-12-13----------13----|
|----------12-------------------------------------|
|-------------------------------------------------|
|-------------------------------------------------|
|-------------------------------------------------|
|
| S S S S S S S S S S S S S S S S
|-20p15----------15-20p15----------15-17p15----15-|
|-------17----17----------17-15-17----------17----|
|----------17-------------------------------------|
|-------------------------------------------------|
|-------------------------------------------------|
|-------------------------------------------------|
|
| E S S E E S S E E E
|-------------------------------------------------|
|-------------------------------------------------|
|-------------------------------------------------|
|--5-----------------5-----------------------5----|
|--3-----3--3--3-----3-----3--3--3-----3-----3----|
|-------------------------------------------------|


S S S S S S S S S S S S S S S S
|-14p11----------11-14p11----------11-12p11----11-|
|-------12----12----------12-11-12----------12----|
|----------11-------------------------------------|
|-------------------------------------------------|
|-------------------------------------------------|
|-------------------------------------------------|
|
| S S S S S S S S S S S S S S S S
|-19p14----------14-19p14----------14-17p14----14-|
|-------16----16----------16-14-16----------16----|
|----------16-------------------------------------|
|-------------------------------------------------|
|-------------------------------------------------|
|-------------------------------------------------|
|
| E S S E E S S E E E
|-------------------------------------------------|
|-------------------------------------------------|
|-------------------------------------------------|
|--4-----------------4-----------------------4----|
|--2-----2--2--2-----2-----2--2--2-----2-----2----|
|-------------------------------------------------|


S S S S S S S S S S S S S S S S
|-14p11----------11-14p11----------11-12p11----11-|
|-------12----12----------12-11-12----------12----|
|----------11-------------------------------------|
|-------------------------------------------------|
|-------------------------------------------------|
|-------------------------------------------------|
|
| S S S S S S S S S S S S S S S S
|-19p14----------14-19p14----------14-17p14----14-|
|-------16----16----------16-14-16----------16----|
|----------16-------------------------------------|
|-------------------------------------------------|
|-------------------------------------------------|
|-------------------------------------------------|
|
| E S S E E S S E E E
|-------------------------------------------------|
|-------------------------------------------------|
|-------------------------------------------------|
|--4-----------------4-----------------------4----|
|--2-----2--2--2-----2-----2--2--2-----2-----2----|
|-------------------------------------------------|


S S S S S S S S S S S S S S S S
|-17p14----------14-17p14----------14-15p14----14-|
|-------15----15----------15-14-15----------15----|
|----------14-------------------------------------|
|-------------------------------------------------|
|-------------------------------------------------|
|-------------------------------------------------|
|
| S S S S S S S S S S S S S S S S
|-22p17----------17-22p17----------17-19p17----17-|
|-------19----19----------19-17-19----------19----|
|----------19-------------------------------------|
|-------------------------------------------------|
|-------------------------------------------------|
|-------------------------------------------------|
|
| E S S E E S S E E E
|-------------------------------------------------|
|-------------------------------------------------|
|-------------------------------------------------|
|--7-----------------7-----------------------7----|
|--5-----5--5--5-----5-----5--5--5-----5-----5----|
|-------------------------------------------------|


S S S S S S S S S S S S S S S S
|-17p14----------14-17p14----------14-15p14----14-|
|-------15----15----------15-14-15----------15----|
|----------14-------------------------------------|
|-------------------------------------------------|
|-------------------------------------------------|
|-------------------------------------------------|
|
| S S S S S S S S S S S S S S S S
|-22p17----------17-22p17----------17-19p17----17-|
|-------19----19----------19-17-19----------19----|
|----------19-------------------------------------|
|-------------------------------------------------|
|-------------------------------------------------|
|-------------------------------------------------|
|
| E S S E E S S E E E
|-------------------------------------------------|
|-------------------------------------------------|
|-------------------------------------------------|
|--7-----------------7-----------------------7----|
|--5-----5--5--5-----5-----5--5--5-----5-----5----|
|-------------------------------------------------|


S S S S S S S S S S S S S S S S
|-15p12----------12-15p12----------12-14p12----12-|
|-------13----13----------13-12-13----------13----|
|----------12-------------------------------------|
|-------------------------------------------------|
|-------------------------------------------------|
|-------------------------------------------------|
|
| S S S S S S S S S S S S S S S S
|-20p15----------15-20p15----------15-17p15----15-|
|-------17----17----------17-15-17----------17----|
|----------17-------------------------------------|
|-------------------------------------------------|
|-------------------------------------------------|
|-------------------------------------------------|
|
| E S S E E S S E E E
|-------------------------------------------------|
|-------------------------------------------------|
|-------------------------------------------------|
|--5-----------------5-----------------------5----|
|--3-----3--3--3-----3-----3--3--3-----3-----3----|
|-------------------------------------------------|


S S S S S S S S S S S S S S S S
|-15p12-----------12-15p12----------12-14p12----12-|
|-------13----13-----------13-12-13----------13----|
|----------12--------------------------------------|
|--------------------------------------------------|
|--------------------------------------------------|
|--------------------------------------------------|
|
| S S S S S S S S S S S S S S S S
|-20p15-----------15-20p15----------15-17p15----15-|
|-------17----17-----------17-15-17----------17----|
|----------17--------------------------------------|
|--------------------------------------------------|
|--------------------------------------------------|
|--------------------------------------------------|
|
| Q H.
|--------------------------------------------------|
|--------------------------------------------------|
|--------------------------------------------------|
|--5-----------4-----------------------------------|
|--3-----------2-----------------------------------|
|--------------------------------------------------|


|--3--| |--3--| |--3--| |--3--| |--3--| |--3--| |--3--| |--3--|
S S S S S S S S S S S S S S S S S S S S S S S S
|-14p11----------------------------11-14p11----------------------------11-|
|-------12----------------------12----------12----------------------12----|
|----------11----------------11----------------11----------------11-------|
|-------------13----------13----------------------13----------13----------|
|----------------14----14----------------------------14----14-------------|
|-------------------14----------------------------------14----------------|
|
| |--3--| |--3--| |--3--| |--3--| |--3--| |--3--| |--3--| |--3--|
| S S S S S S S S S S S S S S S S S S S S S S S S
|-14p11----------------------------11-14p11----------------------------11-|
|-------12----------------------12----------12----------------------12----|
|----------11----------------11----------------11----------------11-------|
|-------------13----------13----------------------13----------13----------|
|----------------14----14----------------------------14----14-------------|
|-------------------14----------------------------------14----------------|
|
| W
|-------------------------------------------------------------------------|
|-------------------------------------------------------------------------|
|--4----------------------------------------------------------------------|
|--4----------------------------------------------------------------------|
|--2----------------------------------------------------------------------|
|-------------------------------------------------------------------------|


|--3---| |--3--| |--3--| |--3--| |--3--| |--3--| |--3--| |--3--|
S S S S S S S S S S S S S S S S S S S S S S S S
|-19p=14----------------------------14-19p14----------------------------14--|
|--------16----------------------16----------16----------------------16-----|
|-----------16----------------16----------------16----------------16--------|
|--------------16----------16----------------------16----------16-----------|
|-----------------18-14h18----------------------------18-14h18--------------|
|---------------------------------------------------------------------------|
|
| |--3---| |--3--| |--3--| |--3--| |--3--| |--3--| |--3--| |--3--|
| S S S S S S S S S S S S S S S S S S S S S S S S
|-19p=14----------------------------14-19p14----------------------------14--|
|--------16----------------------16----------16----------------------16-----|
|-----------16----------------16----------------16----------------16--------|
|--------------16----------16----------------------16----------16-----------|
|-----------------18-14h18----------------------------18-14h18--------------|
|---------------------------------------------------------------------------|
|
| +W
|---------------------------------------------------------------------------|
|---------------------------------------------------------------------------|
|-(4)-----------------------------------------------------------------------|
|-(4)-----------------------------------------------------------------------|
|-(2)-----------------------------------------------------------------------|
|---------------------------------------------------------------------------|


S Q. H +S +W
|-23S24----23--------(23)-|-(23)------------------|
|-------------------------|-----------------------|
|-------------------------|-----------------------|
|-------------------------|-----------------------|
|-------------------------|-----------------------|
|-------------------------|-----------------------|
|
| S Q. Q. E. E E E H +E
|-23S24----23----20-------|--23--20---------------|
|-------------------------|---------22-21----(21)-|
|-------------------------|-----------------------|
|-------------------------|-----------------------|
|-------------------------|-----------------------|
|-------------------------|-----------------------|
|
| W +W
|-------------------------|-----------------------|
|-------------------------|-----------------------|
|--2----------------------|--(2)------------------|
|--2----------------------|--(2)------------------|
|--0----------------------|--(0)------------------|
|-------------------------|-----------------------|


Q. H +E E Q. H
|-20-----------19---------(19)------|-----------------------|
|-----------------------------------|-20--19------17--------|
|-----------------------------------|-----------------------|
|-----------------------------------|-----------------------|
|-----------------------------------|-----------------------|
|-----------------------------------|-----------------------|
|
| S +Q. E Q. +S Q. E E E Q
|-15--(15)b17r====14-12--------(12)-|-14-------15-14-12-----|
|-----------------------------------|-------------------16--|
|-----------------------------------|-----------------------|
|-----------------------------------|-----------------------|
|-----------------------------------|-----------------------|
|-----------------------------------|-----------------------|
|
| W +W
|-----------------------------------|-----------------------|
|-----------------------------------|-----------------------|
|--5--------------------------------|-(5)-------------------|
|--5--------------------------------|-(5)-------------------|
|--3--------------------------------|-(3)-------------------|
|-----------------------------------|-----------------------|


Q. E Q. E Q. H +E
|-14----15-14----12-|-11---------------|
|-------------------|-------12----(12)-|
|-------------------|------------------|
|-------------------|------------------|
|-------------------|------------------|
|-------------------|------------------|
|
| ~
| W W
|-14----------------|------------------|
|-------------------|------------------|
|-------------------|--9---------------|
|-------------------|------------------|
|-------------------|------------------|
|-------------------|------------------|
|
| W W
|-------------------|------------------|
|-------------------|------------------|
|--4----------------|--2---------------|
|--4----------------|--2---------------|
|--2----------------|--0---------------|
|-------------------|------------------|


~
H. +Q
|-/24-------------(24)\----|
|--------------------------|
|--------------------------|
|--------------------------|
|--------------------------|
|--------------------------|
|
| ~
| H. +Q
|--------------------------|
|--15b17==========(15)\----|
|--------------------------|
|--------------------------|
|--------------------------|
|--------------------------|
|
| E H Q.
|--------------------------|
|--------------------------|
|--------------------------|
|---2----------------------|
|---2----------------------|
|---0----------------------|
More 0000409D lessons:
+ Modes. Part 3 - Counterpoint The Basics 11/24/2003
+ Modes. Part 2: What Is Important To Learn About Modes? The Basics 11/24/2003
+ Modes. Part 1 - History And Use The Basics 11/24/2003
+ Playing Arpeggios Fast. Part 2 - What to Practice Guitar Techniques 11/24/2003
+ Guide To Chord Formation Chords 11/24/2003
+ Basic Chord Theory Chords 11/24/2003
+ view all
Comments
Your captcha is incorrect