Shred Guitar Lesson 04

author: JacobReedShred date: 02/13/2013 category: guitar techniques
rating: 7.6 / votes: 5 
Shred Guitar Lesson 04
Hey guys. In this lesson I will teach you the third pattern in E minor. I will also teach you how to perform the two-handed tapping technique, which is an extension of the legato technique we looked at in the last lesson. I'll give some exercises within the E minor scale. Hopefully I'll feel confident enough to put the next part of "Cold Blood" in the lesson. Are you warmed up? Good. Here we go. I will show you the scale pattern first so you can know where the notes are for our exercises. The scale pattern is the third pattern in the key of E minor and it starts on the note G. You can use alternate picking here if you want, to just get used to the notes. Here's the scale.
e|---------------------------------------------17-19-20-20-19-17----------|
B|------------------------------------17-19-20-------------------20-19-17-|
G|---------------------------16-17-19-------------------------------------|
D|------------------16-17-19----------------------------------------------|
A|---------15-17-19-------------------------------------------------------|
E|15-17-19----------------------------------------------------------------|

e|------------------------------------|
B|------------------------------------|
G|19-17-16----------------------------|
D|---------19-17-16-------------------|
A|------------------19-17-15----------|
E|---------------------------19-17-15-|
Do you recognise the sound of this scale? You should. This scale is the most widely used scale in western music. This scale is called the G major scale. The first scale we looked at was the E minor scale. The major scale can be recognised as sounding "happy". The minor scale sounds "sad". We won't get into too much theory here. Just know that for now. It's important when you start writing your own music later on. Now we will look at two-handed tapping. This technique was popularised by Eddie Van Halen from Van Halen. For reference listen to the song "Eruption" from their first album. It is an extremely famous section. The technique involves bringing your picking hand over to the fretboard and performing a hammer-on. When you pull-off with a tapped note you flick your finger off exactly like you would if it was a normal pull-off. To perform tapping you can use your middle finger to tap out the notes. You can do whatever makes you feel comfortable though. You could also put the pick in the crook of your middle finger and tap with your index finger. It is a simple technique, but it is flashy. I remember playing for some homeless children and I was performing "Eruption" to show-off. When I finished one of the kids exclaimed that he was amazed by my "hand thingy". It's always rewarding when that happens. The examples that follow have been redone over and over, but these are essential exercises to get used to the technique. In the tablature the tap will be noted by a "T" under the note. Here's the first one:
e|---------------|
B|---------------|
G|12h16h19p16p12-|
D|-------T-------|
A|---------------|
E|---------------|
Here is a small variation on that exercise:
e|---------------|
B|---------------|
G|16p12h19p12h16-|
D|-------T-------|
A|---------------|
E|---------------|
Now we will look at an exercise that has more going on. We will change the tapping note from one note to the other. Here it is:
e|---------------------------|
B|---------------------------|
G|12h14h16p14p12h14h19p14p12-|
D|-------T-----------T-------|
A|---------------------------|
E|---------------------------|
Pretty easy, huh? It's not difficult at all, but there is so much you can do with this technique. Let's change the notes in our fretting hand AND our tapping hand. Here it is.
e|---------------------------|
B|---------------------------|
G|12h14h19p14h16h17p16p14s12-|
D|-------T--------T----------|
A|---------------------------|
E|---------------------------|
I wanted to add an exercise that looked good as well as sounded good. When you pull off from the tapped note you shift your first finger to the 14th fret on the G string. I also wanted to put a slide in there, just for fun. Now we will look at an example of tapping that involes moving strings. Whenever you perform this make sure the notes sound clear and even. Make sure there's no other notes ringing out. It helps if you mute with your palm on the lower strings if you haven't found that out already. Here's the exercise:
e|------------14h15h17h20p17p15p14-|
B|13h15h17h20-----------T----------|
G|----------T----------------------|
D|---------------------------------|
A|---------------------------------|
E|---------------------------------|
It's pretty fun. Tapping is one of my favorite techniques ever. The amount of things you can do with tapping is nearly endless, but we will go over more advanced tapping techniques in another lesson. I'm feeling pretty good right now so let's look at another lick in "Cold Blood". This lick is exactly after the last lick in the legato lesson, so you should work on connecting the two licks. Here you go:
e|------------------20-19-17-20p14h15h19p15p14----------|
B|13h15h20p17p15p13-----------T--------T-------20p17p13-|
G|-------T--------------------------------------T-------|
D|------------------------------------------------------|
A|------------------------------------------------------|
E|------------------------------------------------------|
Again, this is my lick. You may not use it in any of your own songs. Work on connecting the two licks into a lick that will really weld all the techniques we've looked at so far together. Remember to make every note you play clear and clean. In the next lesson I will look at economy picking. It uses alternate picking and is a huge gateway to the technique of sweep picking. As always practice, practice, practice. It is important to play these techniques in the ultimate goal of shredding. Have fun. Check out previous lessons here. The next lesson will be here soon.
More JacobReedShred lessons:
+ Building Speed 02. Legato and Tapping Guitar Techniques 07/23/2013
+ Shred Guitar Lesson 10. Eight Finger Tapping Guitar Techniques 07/10/2013
+ Building Speed 01. Alternate Picking Guitar Techniques 06/21/2013
+ Shred Guitar Lesson 09. Computer Tapping Guitar Techniques 06/11/2013
+ Creative Shred Ideas 03. Putting It All Together Guitar Techniques 06/07/2013
+ Creative Shred Ideas 02. Arpeggios Guitar Techniques 05/10/2013
+ view all
Comments
Your captcha is incorrect