Speed Up Your Soloing. Vol 2: Part II - Economy Picking

author: beatrocker date: 10/19/2009 category: guitar techniques
rating: 7.4 / votes: 7 
Welcome to the second lesson of "Speed Up Your Soloing. Vol II". Today I'm going to show you a picking technique called Economy Picking. 1. What is Economy Picking? Basically, Economy Picking is just a combination of Alternate and Sweep Picking. But saying "just a combination of Alternate and Sweep Picking" is not a very good description of it, because the techniques are used in a special system: If you stay on one string, you just do Alternate Picking, but when you go to another string, you use Sweep Picking. These techniques combined this way are called "Economy Picking" because you're being economical with your picking hand movement. So this technique is a very good shred picking technique. 2. Getting into Economy Picking Now I'm going to show you how the technique really works. Here's a very basic excercise twice, the first one is played with Alternate Picking and the second one with Economy Picking. n = downstroke v = upstroke
E-------------------------------1-2-3-I 
B-------------------------1-2-3-------I
G-------------------1-2-3-------------I
D-------------1-2-3-------------------I
A-------1-2-3-------------------------I
E-1-2-3-------------------------------I
  n v n v n v n v n v n v n v n v n v
 
E-------------------------------1-2-3-I
B-------------------------1-2-3-------I
G-------------------1-2-3-------------I
D-------------1-2-3-------------------I
A-------1-2-3-------------------------I
E-1-2-3-------------------------------I
  n v n n v n n v n n v n n v n n v n
Important: Don't try to play it too fast!! Start out slowly!! Maybe the run with Economy Picking will feel a little weird at first. Economy Picking is a technique you have to get used to, but when you get it down, it allows you to play extremely fast. 3. Economy Picking Licks and Runs The easiest way to use the Economy Picking is on a 3-note-per-string run. A good example is the A minor scale, ascending and descending:
ascending:
E--------------------------------7-8-10-I
B-------------------------6-8-10--------I
G-------------------5-7-9---------------I
D-------------5-7-9---------------------I
A-------5-7-8---------------------------I
E-5-7-8---------------------------------I
  n v n n v n n v n n v n n v n  n v n
 
descending:
E-8-7--------------------------------I
B-----10-8-6-------------------------I
G------------9-7-5-------------------I
D------------------9-7-5-------------I
A------------------------8-7-5-------I
E------------------------------8-7-5-I
  n v  v n v v n v v n v v n v v n v
Of course you can also use it on other scales and on more complex runs. One on my favourites is from the Yngwie Malmsteen song "Overture 1622" It's a very long one, and it uses the B harmonic minor scale. But some string changes here are also done with alternate picking, and at the end there's also some legato. n = downstroke v = upstroke h = hammer on p = pull off
E------------------------------------------------------------I
B------------------------------------------------------------I
G---------------------------------------9-11-12----9-11-12---I
D-------------------------------9-11-12---------12---------9-I
A-----------------7-9----7-9-10------------------------------I
E-6-7-9-10-7-9-10-----10-------------------------------------I
  n v n v  n v n  n v v  n v n  n v  n  n v  n  v  n v  n  v 
 
E------------------------------15-14-12----------15p14p12h14h15-14h15p14-I
B---------------11-12-14-12-11----------15-14-12-------------------------I
G-------9-11-12----------------------------------------------------------I
D-11-12------------------------------------------------------------------I
A------------------------------------------------------------------------I
E------------------------------------------------------------------------I
  n  v  n v  n  n  v  n  v  n  n  v  n  v  n  v  n              v
As you see, there is no strict economy picking here, but if it's possible, it's used. And runs like this can really help to build up speed. OK, that's it. I hope this lesson was helpful. If you have any questions, just send me a message. The next lesson will be about other really interesting ways to combine Alternate and Sweep Picking. See you then. Bye.
More beatrocker lessons:
+ Speed Up Your Soloing. Vol 2: Part I - Open String Legato Phrases Guitar Techniques 10/15/2009
+ Speed Up Your Soloing. Part IV - Speed-Building Runs For Beginners 01/21/2009
+ Speed Up Your Soloing. Part III: Easy Multiple String Licks Soloing 09/23/2008
+ Speed Up Your Soloing. Part II: Easy Single String Licks Soloing 09/23/2008
+ Speed Up Your Soloing. Part I: Warm Up And Synchronisation Excercises Soloing 09/23/2008
Comments
Your captcha is incorrect