The Church Arpeggios

author: Life Is Brutal date: 04/08/2009 category: guitar techniques
rating: 9.9 / votes: 8 
This Lesson Is not for Begginers who want to learn how to sweep pick, this is for people who already know how to sweep pick and can put it into use. The Ionian Arpeggio is the first of seven modes based around the white keys of the piano, called the church modes. This arpeggio Has it's root in C, followed by D, E, F, G, A and B. The Ionian Arpeggio
--------------13-7--------------
-----------10------10-----------
---------9------------9---------
------12----------------12------
---10----------------------10---
-8----------------------------8-
The Dorian Arpeggio is the second of the church modes. The root is in D, with all the tones being D, E, F G, A, B, and C. The Dorian Arpeggio
----------------15-8----------------
-------------12------12-------------
----------10------------10----------
-------14------------------14-------
----12------------------------12----
-10------------------------------10-
The Phrygian Arpeggio is the third Arpeggio in our white-keys-on-the-piano church modes. The root is in E, with all the tones being E, F, G, A, B, C and D. The Phrygian Arpeggio
----------------15-10----------------
-------------13-------13-------------
----------12-------------12----------
-------15-------------------15-------
----14-------------------------14----
-12-------------------------------12-
The Lydian Arpeggio is the fourth of the Church Modes, with the root in F, followed by G, A, B, C, D and E The Lydian Arpeggio
----------------17-12----------------
-------------15-------15-------------
----------14-------------14----------
-------17-------------------17-------
----14-------------------------14----
-13-------------------------------13-
The Mixolydian Arpeggio is the fifth mode of the seven church modes with the root in G, followed by A, B, C, D, E and F.
----------------19-13----------------
-------------17-------17-------------
----------16-------------16----------
-------19-------------------19-------
----17-------------------------17----
-15-------------------------------15-
The Aeolian Arpeggio is the sixth mode and the root is in A, following with B, C, D, E, F, and G. The Aeolian Arpeggio
----------------8-3----------------
-------------6-------6-------------
----------5-------------5----------
-------9-------------------9-------
----7-------------------------7----
-5-------------------------------5-
The Locrian Arpeggio is the last of the seven modes based around the piano's white keys. The Root is in B, With C, D, E, F, G and A Following. The Locrian Arpeggio
----------------10-5-------------
-------------8--------8----------
----------7-------------7--------
-------10-----------------10-----
----8------------------------8---
-7-----------------------------7-
And those are the Church Arpeggio's Based around the Church Scales. Questions or Comments? Post them here, PM me, Or Email me. I Hope you guys learned something from this, and could put it into good use. Remember, Practice!
More Life Is Brutal lessons:
+ Sweep Arpeggios. Part 2 Guitar Techniques 03/31/2009
+ Sweep Arpeggios Guitar Techniques 11/06/2008
Comments
Your captcha is incorrect