How To Play Deathcore. Part II

author: Banjocal date: 04/30/2010 category: music styles
rating: 7.8 / votes: 13 
Hi, this lesson will cover more advanced techniques of deathcore, and maybe a bit of tech death: now, I can't sweep pick, so don't expect anything on that, because there are lessons everywhere online. In this lesson, I will basically cover techniques that a lot of guitarists (if you're an expert then this lesson isn't really any use to you) get stuck on, and it can either cause you to play it too fast, out of time, or unwanted strings ringing. I: Triplets For a beginner (and some early intermediate players), triplets can be harder to achieve than you may think: remember, timing is VITAL for being a good guitarist: for instance, Slash is an excellent guitarist (don't have a go for my tastes he was the first guitarist who came into my head), but, if he played in a band and couldn't keep in time, then he is useless. I cannot hammer this point home hard enough: TIMING IS EVERYTHING: music is just as much about the notes that ARE being played as much as they are about the notes that aren't. Basically, all the technique and skill in the world counts for nothing if you are playing a beat out of time. And when you think about it, all the notes have to be played cleanly, in time, and flow smoothly: if you are self taught or something to that effect, these things may get back to you in later life. NOTE THE TUNING.
e|--------------------------------------------------------------|
B|--------------------------------------------------------------|
G|--------------------------------------------------------------|
D|--------------------------------------------------------------|
A|-0-0-0-0--5h8p5--4h7p4--0-0-0-0-4h5h7-5h7h8-------------------|
D|-0-0-0-0----------------0-0-0-0-------------------------------|
   * * * *                * * * *                
Okay, so play this riff that I made up. I bet money you instantly tried to play it quickly. Now, if you don't have a metronome, no worries; tap your foot slowly, and play in time. Slowly, build up speed until its roughly at 180-200 bpm. Note that this lesson will use the Spanish Gypsy/Hebrew scale (see previous lesson). Now, doing these hammerons and pulloffs may feel awkward if you're not used to doing this quickly (I should stress you should use your pinkie finger for these). To build up finger dexterity, practise a chromatic scale: Mick Thomson slipknot swears by this scale for building finger dexterity.
e|-----------------------------------------6-7-8-9-------------------------------|
B|---------------------------------5-6-7-8---------------------------------------|
G|-------------------------4-5-6-7-----------------------------------------------|
D|-----------------3-4-5-6-------------------------------------------------------|
A|---------2-3-4-5---------------------------------------------------------------|
E|-1-2-3-4-----------------------------------------------------------------------|
Practise this, and, on the way down, play this:
e|-10-9-8-7----------------------------------------------------------------------|
B|----------11-10-9-8------------------------------------------------------------|
G|--------------------12-11-10-9-------------------------------------------------|
D|-------------------------------13-12-11-10-------------------------------------|
A|-------------------------------------------14-13-12-12-------------------------|
E|-------------------------------------------------------15-14-13-12-------------|
Practise slowly, making sure you play each note evenly, tapping your foot and playing in time. After a while, play it as hammerons: remember: take it slowly, and evenly, if you can't hear the hammerons that well, plug into an amp, and add OD and your problem will be solved. Now, four finger hammerons are pretty rare, and are only really used in tech death (Brain Drill - Sadistic Abductive for example, or Anomalous). Doing pulloffs are significantly harder than hammerons, so practise this one A LOT. After a while, you will notice you can play faster. After a while, try this ascending run which is based around a Spanish gypsy scale, play fast, and smoothly. Note that the final triplet is one beat too long.
e|------------------------------------------5h6h8-6h8h9-------------------------|
B|------------------------------------5h6h8-------------------------------------|
G|------------------------------6h8h9-------------------------------------------|
D|------------------------5h7h8-------------------------------------------------|
A|------------4h5h7-5h7h8-------------------------------------------------------|
D|-4h5h7-5h7h8------------------------------------------------------------------|
Okay, final note (no pun intended), remember to KEEP YOUR FINGERS BENT: use the TIPS of your fingers to play the triplets, or your hands will hurt in the future, the same rule applies to playing piano, if you keep your fingers flat, you will damage your hands: musicians actually make the movements with their hands as small as possible when playing fast and complex riffs. II: String Skipping String skipping is a problem because players often hit the strings in-between, and this can make it sound messy. And even though people say that metal musicians cant play their instruments, they play stuff more complicated than any other genre (except maybe neoclassical shred ^_^), and if they took off the OD, you would find out that everything would sound really clean and neat. SO! Lets start with a riff :) Tell Slater Not to Wash His D**k Bring Me The Horizon
|----------------------------------------------------------|
|----------------------------------------------------------|
|----------------------------------------------------------| 
|------------7------------------8--------------------------|
|---5---7------(x2)----5---7------(x2)----5---7---8--(x4)--|
|-0---0---0----------0---0---0----------0---0---0----------|
  *   *   *          *   *   *          *   *   *        
|--------------------------------------------------------------------------|
|--------------------------------------------------------------------------|
|--------------------------------------------------------------------------|
|-12---10---8---------8---7------------------------------------------------|
|---------------(x2)----------10----(x2)------8p5---5-7-8------4h6h7-5h7h8-|
|----0---0----0---------0---0----0-------0000-----0-------0000-------------|
     *   *    *        *   *    *        ****     *       ****
Now, it is important to make sure you don't hit the A string when you play the skip notes: try to mute the A with the side of your finger, and make sure you alternate pick. You may notice I use this particular song in teaching, and thats because it is so good for beginning deathcore, so I strongly advise you learn this song. III: Pinch Harmonics Plug in the amp, gain up full, overdrive. Fret the 5th fret on the G. Hold the pick so that the tip is roughly 1-2mm away from the side of your thumb, and as you pick the note, immediately afterwards, lightly brush the string with the side of your thumb, try this in multiple places above the pickups until you get a shrill, high pitched squealing sound. This lesson focuses on it. This technique takes practise, so KEEP TRYING! You'll get it in the end =]. IV: Natural Harmonics Lightly place your fingers on the string, and play the note, lifting your finger off immediately after you play it: by now, you really should know about natural harmonics: in metal, if used at all (mainly in tech death), for metal they sound best from the 1st fret to the 4th fret. The places available for harmonics are unlimited, even being able to play it at fret 2.5, but try it on the 3rd fret. V: putting them all together (3* Pinch harmonic / [3] natural harmonic) Try this:
E-------------------------------------4h5h6h7-----|
B-------------------------------------------------|
G---------3*------------3h4h5h6-------------------|
D-------------------------------4h5h6h7-----------|
A-------------------------------------------------|
D-0-0-0-0----0-0-3h4h5h6--------------------------|

E-------------------------------------------------|
B-------------------------------------------------|
G-------------------------------------------------|
D-------------------------------8---5h7-----------|
A---------------------------------------8*--------|
D-0-0-[3]-0-0-[3]-0-0-[2.5]-0-0---0---------------|
Okay so there ya go :). Personally I feel this lesson wasn't as useful as my first, but I learned the hard way, and subsequently had to relearn timing etc, and I think others should also learn this.
More Banjocal lessons:
+ How To Play Deathcore Music Styles 04/27/2010
Comments
Your captcha is incorrect