Modes Explained - How To Apply In A Solo

author: racingboyy321 date: 09/27/2010 category: scales
rating: 4.5 / votes: 6 
Today I shall try to explain Modes. They are a very interesting aspect to music - played in the right place and they can sound very impressive. For this lesson it is imperative to understand the basis of music theory such as construction of Major and Minor scales. At the end of the lesson I will tab out a short self composed solo for a few of the modes For starters: A Mode basically means when you rearrange a scale like the Major scale, Harmonic Minor and Melodic Minor. For instance if you were to rearrange the A Major scale and start it on the 4th note; a D, you would have D Lydian Mode. Another name for the Major scale is the Ionian Mode and another name for the Aeolian mode is the Natural Minor mode. Anyway here is a list of the Modes of the Major scale. I will use scale formulas here instead of the actual notes so that you can apply it to any key.
I Ionian (major)mode:           1,2,3, 4,5,6, 7,8  
II Dorian mode:                 1,2,b3,4,5,6,b7,8
III Phrygian mode:              1,b2,b3,4,5,b6,b7,8
IV Lydian mode:                 1,2,3,#4,5,6,7,8
V Mixolydian mode:              1,2,3,4,5,6,b7,8
VI Aeolian (Natural Minor)mode: 1,2,b3,4,5,b6,b7,8
VII Locrian mode:               1,b2,b3,4,b5,b6,b7,8
An easy way to think of soloing with modes is that if you think that the chord tones of the chord of, say A major for example are A, C#, E and normally you can solo with A,B,C#,D,E,F#,G#; if you use one of modes that play over an A major chord - as an A major chord contains the steps 1,3,5 - such as the Lydian mode you are changing one of the chord tones from D to D# (the #4)you can produce a whole new sound. This mode is often used in Jazz. You can also use the Harmonic Minor scale to produce some other interesting modes;
I Harmonic Minor:             1,2,b3,4,5,b6,7,8
II Locrian Natural 6th:       1,b2,b3,4,b5,6,b7,8 - notice the natural 6th compared
 to the b6 in the Major scale Locrian mode.
III Ionian #5:                1,2,3,4,#5,6,7,8
IV Romanian Minor:            1,2,b3,#4,5,6,b7,8
V Spanish Gypsy:              1,b2,3,4,5,b6,b7,8
VI Lydian #2:                 1,#2,3,#4,5,6,7,8
VII Super Locrian Diminished: 1,b2,b3,4,b5,b6,bb7 Notice the bb7. This basically 
means to flatten it 2 semitones or by one tone.
Also the Melodic Minor Ascending scale has modes of its own. There is no need to use the descending Melodic Minor because its the same as the Natural Minor scale.
I Melodic Minor: 1,2,b3,4,5,b6,7,8
II Dorian b2: 1,b2,b3,4,5,6,b7,8
III Lydian Augmented: 1,2,3,#4,#5,6,7,8
IV Lydian Dominant: 1,2,3,#4,5,6,b7,8
V Mixolydian b6: 1,2,3,4,5,b6,b7
VI Locrian Natural 2nd: 1,2,b3,4,b5,b6,b7,8
VII Super Locrian: 1,b2,b3,b4,b5,b6,b7,8
Here is a very short solo tabbed out over some chords :
  A                     A                            Am
   
  A Ionian Mode         A Lydian Mode                A Phrygian Mode  
e|-17---16-14----------|----------------17-------17-|-------------12p10p8---|
B|------------17-15-14-|-15-16-17-17b19----17b19----|-10-11-13-15---------11|
G|---------------------|----------------------------|-----------------------|
D|---------------------|----------------------------|-----------------------|
A|---------------------|----------------------------|-----------------------|
E|---------------------|----------------------------|-----------------------|
  A                        A
 
  A Spanish Gypsy mode     A Spanish Gypsy Mode
e|-------9-10-12----13----|-15----13----12----10----|
B|-10-11---------10----10-|----10----10----10----10-|
G|------------------------|-------------------------|
D|------------------------|-------------------------|
A|------------------------|-------------------------|
E|------------------------|-------------------------|
Comments
Your captcha is incorrect