Starting To Learn The Scales. Part 2

author: samhurley7 date: 01/09/2012 category: scales
rating: 4 / votes: 6 
Section 1: First in my previous lesson people didn't grasp what the term IONIAN means. This is the name of the scale. The IONIAN scale is more commonly referred to as the major scale so if you are a beginner call it the major scale. Secondly this lesson is going to go over mode two of the Ionian scale whole. If you missed my first lesson, which is important, click hear to review or learn because it is important to learn each mode (or scale). (This says for beginners but its a bit more advanced.) Section 2: Here is the second mode of the f major scale (remember this can be moved around according to what key you are in.) Ionian (Major scale) Mode II Key of F
e------------------------------5-6-8----
B------------------------5-6-8----------
G------------------3-5-7----------------
D------------3-5-7----------------------
A-------3-5-7---------------------------
E-3-5-6---------------------------------
*Remember that this is a moveable scale depending on key. EXAMPLE: Ionian (Major Scale) mode II Key of G
e-------------------------------7-8-10-
B-------------------------7-8-10-------
G-------------------5-7-9--------------
D-------------5-7-9--------------------
A-------5-7-9--------------------------
E-5-7-8--------------------------------
Lastly if you want to Master these scales just descend then ascend wile practicing. This helps build forum, muscle memory, and lastly it forces u to recall the scale when you come back to your guitar to play it.
More samhurley7 lessons:
+ Starting To Learn The Scales. Part 1 For Beginners 01/06/2012
Comments
Your captcha is incorrect