Descending Chromatic Lines

author: jasonwilford date: 12/22/2010 category: soloing
rating: 8.2 / votes: 5 
Many guitar teachers spend the time to teach their students how to play the chromatic scale for finger exercises and warming-up, but very few actually are able to demonstrate or teach how to use the scale in a live playing situation. I incorporate the chromatic scale into almost everything I do, which is why I decided to write this. This article will show you how to easily incorporate chromatic tones into scales that hopefully you already know. I will be focusing on descending lines because: a) they sound great b) they're easy to start off with. I am assuming that you: -Have an understanding of the major scale and how it is built. -Know what the chromatic scale is, and how to play it (refer to my article on this topic if you don't.) It is also very beneficial if you know different positions/modes of the major scale so that you can incorporate this into your own playing and style, and understand what I am talking about for some of the examples. I am going to be using the G major scale for this example, in 7th position with the root on the 5th string Here it is ascending in quarter notes:
E |----------------|----------------|-----7--8--10---||
B |----------------|--------7--8----|--10------------||
G |----------------|--7--9----------|----------------||
D |-----7--9--10---|----------------|----------------||
A |--10------------|----------------|----------------||
E |----------------|----------------|----------------||
Here is the same scale descending in quarter notes :
E |--10-8--7-------|----------------|----------------||
B |-----------10---|--8--7----------|----------------||
G |----------------|--------9--7----|----------------||
D |----------------|----------------|--10-9--7-------||
A |----------------|----------------|-----------10---||
E |----------------|----------------|----------------||
Now we are going to add chromatic tones to the descending scale to spice things up a bit. The concept is to add a chromatic tone in BETWEEN each scale tone, so we will end up with eighth notes. If no scale tone exists, subsitute the closest higher scale tone instead. It's important to note that these lines will sound best with a swing feel - otherwise it will sound boring and robotic. Here is the concept applied to just the first string:
E |--10-9--8--10-7----||
B |-------------------||
G |-------------------||
D |-------------------||
A |-------------------||
E |-------------------||
As you can see, it seems easy when looking at one string, but sometimes it can be tricky going between strings because of fingerings and positions shifts. Here is the entire G major scale with this concept. I will note the fingerings underneath the tabs, as well as mark above the tab with 'S' for each scale tone. You should notice that every second note is a scale tone, which means they are all on the downbeat.
     S     S     S     S          S     S     S     S          S     S     S     S 
E |--10-9--8--10-7-------------|----------------------------|-------------------------||
B |-----------------11-10-9----|--8--10-7-------------------|-------------------------||
G |----------------------------|-----------10-9--8--7-------|-----7-------------------||
D |----------------------------|-----------------------11---|--10----9--8--7----------||
A |----------------------------|----------------------------|-----------------11-10---||
E |----------------------------|----------------------------|-------------------------||
     4  3  2  4  1  4  3  2       1  3  1  4  3  2  1  4       3  1  3  2  1  4  3
Memorize this until you can play it slowly to a metronome. Make it as smooth as possible, and make sure to experiment with the swing feel to see what you like best. Here is a run that uses this concept over the G major chord. Note which chord tones I am emphasizing, so that you can transfer this concept to other chords and scales.
E |--10-9--8--10-7-------------|----------||
B |-----------------8----------|-----8----||
G |--------------------7-------|----------||
D |-----------------------11---|--10------||
A |----------------------------|----------||
E |----------------------------|----------||
Here is a similar run, but over a B minor chord. Take note of how I applied the same chromatics, but emphasize different chord tones. This run implies the mode of B Phyrgian.
E |--10-9--8--10-7-------------|----------||
B |-----------------7----------|----------||
G |--------------------7-------|-----7----||
D |-----------------------10---|--9-------||
A |----------------------------|----------||
E |----------------------------|----------||
Here I apply the chromatics over B minor (Phrygian again), but focus on just using notes from the blues scale once I hit the second string.
E |--10-9--8--10-7-------------|-------------------||
B |-----------------10-7-------|-------------------||
G |-----------------------10---|--9--7-------------||
D |----------------------------|--------9--7--9----||
A |----------------------------|-------------------||
E |----------------------------|-------------------||
This next example is based off of an E minor chord (Aeolian). It also sounds really nice over Em9 since I am emphasizing the F# here (9th tone of the E Aeolian scale.)
E |----------------------------|----------------|----------------------------|----------||
B |--10-9--8--10-7-------------|--7-------------|--10-9--8--10-7-------------|--7--8--7-||
G |-----------------9--7--9----|-----9--7-------|-----------------9--7--9----|----------||
D |----------------------------|-----------9----|----------------------------|----------||
A |----------------------------|----------------|----------------------------|----------||
E |----------------------------|----------------|----------------------------|----------||
Try transfering this concept to other modes/positions of the major scale, and make up your own runs over different types of chords. I only scratched the surface here, but sometimes that's best because you will hopefully be able to be more creative and make up your own cool sounding chromatic licks, instead of playing them verbatim. Enjoy! Jason Wilford ------------------------------------------------------------------- Jason is a guitar teacher and musician from Mississauga, ON, Canada. More information can be found here.
More jasonwilford lessons:
+ Introduction to Rhythmic Notation For Beginners 11/12/2014
+ Why Strumming Patterns Are Killing Your Creativity Correct Practice 03/26/2014
+ Cool Licks: Country Bends Guitar Techniques 10/16/2012
+ Cool Licks: Using Natural Harmonics Guitar Techniques 09/06/2012
+ Fighting Back Against Modal Misconceptions. Part 1 Scales 08/24/2012
+ Cool Licks 2: Highlighting Chord Tones In E Major For Beginners 06/08/2012
+ view all
Comments
Your captcha is incorrect