Guitar Phrasing: Step by Step

author: RyanTS2 date: 01/23/2014 category: soloing
rating: 7.3 / votes: 12 
Guitar Phrasing: Step by Step
Fusion shredder Guthrie Govan has described his approach to improvisation as (and I'm paraphrasing here) "blues... using chromatic notes to 'fill in the gaps'." Though the typically modest master of jazzy shred greatly understates the scope of his abilities, I have found his concept of playing notes not associated with a particular mode or key to be a great inspiration for my own phrasing, improvised or otherwise. I'd like to use this column to introduce a few of these ideas via scales and licks.

Like many guitarists, my first exposure to chromaticism (defined here as "step-by-step" movement, moving through a sequence of notes one semi-tone at a time rather than familiar scalar patterns) was through the blues scale (Figure 1). This fantastic little sequence contains a sharp fourth (or flat fifth) degree, bridging the fourth-fifth gap within an otherwise ordinary minor pentatonic. For the burgeoning lead guitarist, playing this scale ascending and descending in at least two octaves against a I-IV-V backdrop is a useful exercise in hearing how passing tones (in that they "pass" between two scale tones) or "blue notes" can "make sense" in a given harmonic context.

Figure 1: A minor blues scale, ascending

e]---------------------------------------5--8--------
B]---------------------------------5--8--------------
G]------------------------5--7--8--------------------
D]------------------5--7-----------------------------
A]---------5--6--7-----------------------------------
E]---5--8--------------------------------------------
Of course, just as many guitarists are acquainted with chromatic movement vis-à-vis the common (though perhaps less musical) backstage metronome warm-up (Figure 2). In this exercise, each of the four fretting fingers plays a note one semitone, or half-step, up from the preceding note.

Figure 2: Chromatic warm-up exercise, ascending

----------------------------------------------------------7-8-9-10---
e]-----------------------------------------------6-7-8-9-------------
B]--------------------------------------5-6-7-8----------------------
G]-----------------------------4-5-6-7-------------------------------
D]--------------------3-4-5-6----------------------------------------
A]-----------2-3-4-5-------------------------------------------------
E]--1-2-3-4----------------------------------------------------------
Most of the ideas presented here will proceed from the first example and emphasize musicality, since very few licks outside the world of jazz consist of extended chromatic passages. Obviously, fans of jazz could very rightly argue that such sequences are indeed quite musical, though explaining why and how could generate another two or three columns worth of content (ahhh, perhaps someday...) Anyway, my goal is to make these concepts as accessible as possible to any and all guitarists looking to add a bit more "spice" to their phrasing.

"Filling in the Gaps"

One method of adding passing tones to lead lines or melodies (and one which I regularly employ to this day) is to target the space between any two notes on a fretboard that are separated by one fret. Let's look at the last six notes of a G major scale, beginning on the third fret of the B string, on an ascending three-notes-per-string pattern (Figure 3).

Figure 3: G major scale starting on D (3rd fret, B string), ascending

e]-----------3--5--7------
B]--3--5--7---------------
G]------------------------
D]------------------------
A]------------------------
E]------------------------
Above, we have two ideal locations for adding passing tones: between the 5 and seventh frets (in other words, the sixth fret) on both the B and e strings. Doing so gives us a flat seventh (on B) and a flat third (on e). We could then play the following lick (Figure 4).

Figure 4: G major chromatic lick

e]--7--6--5--3--------------5-p-3------------
B]--------------7--6--5--3---------5-h-6-----
G]----------------------------------------7--
D]-------------------------------------------
A]-------------------------------------------
E]-------------------------------------------
Of course, the same concept applies to minor shapes as well. Take a look at the following E minor shape (Figure 5); it neatly employs elements of the warm-up exercise shown at the beginning of this column while staying in a familiar "box" scale pattern.

Figure 5: E minor lick using passing notes, descending

e]-15-14-13-12-----------------------------------------
B]--------------15-14-13-12----------------------------
G]----------------------------14-13-12-----------------
D]--------------------------------------12-h-14--------
A]-----------------------------------------------------
E]-----------------------------------------------------
Some of the more observant readers who are still with me at this point are wondering why neither the blues scale nor the two examples I provided end on these passing tones. In many styles of music, ending a musical phrase on the fourth degree of the root note is considered sonically unpleasant: the two tones seem to "clash," so players tend to avoid the interval of a fourth entirely. The same concept applies here: unless one is targeting specific chord tones over a changing progression making use of devices like extended chords which would consist of these passing notes in their construction, ending a lick or phrase with them (or "lingering" on the note) might produce a rather jarring effect. They are "passing" tones for this reason: they quickly pass by the ear as the phrase or melody progresses. As the aphorism goes, "there are no 'bad' notes, just bad resolutions!"

I'll finish this section by presenting one of my favorite ways to incorporate the "fill in the gaps" concept, resulting in a very angular, jazzy, "outside"-sounding lick. This six-string sequence begins on the tenth fret of the E string, and follows a three-notes-per-string pattern. It outlines the E minor scale, beginning on the seventh degree of the scale (D).

Figure 6: E minor sequence

e]-----------------------------------------------10-h-12--12-p-10------10--
B]-------------------------------------10-11-12--------------------12------
G]----------------------------9-10-11--------------------------------------
D]-------------------9-10-11-----------------------------------------------
A]---------10-11-12--------------------------------------------------------
E]--10-12------------------------------------------------------------------
e]---------------------------------------------------
B]--12-11-10------10---------------------------------
G]------------12------12--11--9----------------------
D]---------------------------------------------------
A]---------------------------------------------------
E]---------------------------------------------------

Thinkin' about Intervals

Another way to approach and apply more passing notes is to simply try and play conflicting intervals in sequence; for example, we could run from a root to a major third, then play a minor third before ascending further up the lick, incorporating passing chromatics with each string change. This gets us closer to the idea of "outside" playing, where notes from noticeably different keys weave in and out of a musical phrase to create some very interesting sequences. Here is a phrase I developed in E minor to illustrate the concept:

Figure 7: "Outside"-sounding sequence

e]----------------------------------------------------------------------
B]---------------------------------------8-7-h-8-p-7-----7--------------
G]------------------------------9-10-11---------------9-----9-7---------
D]-------6-7-9/11-p-10-9-10-11-----------------------------------11-10--
A]--7-7-----------------------------------------------------------------
E]----------------------------------------------------------------------
To add even more depth and complexity to passages like Figure 7, I suggest incorporating diminished patterns à la Shawn Lane to take the lick even further off the ground before resolving. Thank you for reading; I certainly hope you've found some useful information here. Please leave feedback so I can improve my lesson writing, and feel free to ask for clarification in the comments section: I usually respond to questions there. Good luck!
More RyanTS2 lessons:
+ Powers Of 4: Developing 4-String Sweeps Guitar Techniques 04/04/2013
+ Breaking Out Of The Boxes Guitar Techniques 09/27/2012
Comments
Your captcha is incorrect