Solo Training

author: handsome snake date: 05/31/2011 category: soloing
rating: 5.6 / votes: 5 
First, I'm not really good writting english (I'm mexican) so I'll do my best. If you find a mistake let me know and (if I can) I will correct it. Soloing is easy when you know what to do, and you know what to do when yo know how a scale sound, how all the tones of the scale sound like. I'll only explain minor scale 'cause I think it's easier to do a solo than major. What you would need is a MIDI Rhythm guitar and drums (You can use GuitarPro) Rhythm guitar is going to make a Minor Chords progresion, I recomend Practicing on E tone loop, so the chord would be Em, C, G, D and drums would play a 8/8 grove. (I recommend 80-100 BPM)
Well, if you dont know Em scale, it has E, F#, G, A, B, C, D
                                Degrees I  II III IV V VI VII
Your best friends would be third, fourth, sixt and in some cases sevent (NOTE: All degrees are usefull, but these are those that I use)
E---(12)-14-15----------|
B----12-13--15----------|             ( ) - Root Tone
G-11-12--14-------------|
D----12-(14)------------|
A----12--14-15----------|
E---(12)-14-15----------|
Practice scale and when you feel ready, start the MIDI song, listen at the track and imagine what do you want to hear and try to play in the scale (Obviously, don't try to play a super fast solo, remember that you need to know the scale) To improvise a solo you will use the tones I wrote up as a recomendation. A nice intro to a solo is a whole tone bend in the fourt degree, then third degree and the root tone. b-Bend
                                             D
  Em              C                 G        1  2  3  4  4(3/4)  Em
E---------------|----------------|---------|-------------------|---------------|
B---------------|----------------|---------|-------------------|---------------|
G---------------|----------------|---------|---------b14---12--|---------------|
D---------------|----------------|---------|-------------------|14-------------|
A---------------|----------------|---------|-------------------|---------------|
E---------------|----------------|---------|-------------------|---------------|
Well, soloing is just imagination, you are who need to try to make your tecnique better. Personally, I use the Minor Scale method to play both Major and Minor just starting in another root tone.
E---(12)-14{15}---------|
B----12-13--15----------|             ( ) - Minor Scale Root Tone
G-11{12}-14-------------|
D----12-(14)------------|             { } - Major scale Root tone
A----12--14-15----------|
E---(12)-14{15}---------|
I recommend to practice this "tecnique" in "Confortalbe Numb" (Pink Floyd) starting with Bm scale and change to D major in chorus. So, I think it's all I can say, good luck and nice soloing!
Comments
Your captcha is incorrect