Some Kind Of Soloing Tips In Eminor

author: Belsebubb93 date: 04/22/2009 category: soloing
rating: 8.4 / votes: 12 
Hi! In this lesson i will teach you about legato, tapping, sweep and other thing like that: H=Hammer-on P=Pull Of B=bend Rb=Release Bend S=Slide T=tapping V=Vibrato Legato: This is a style the Iron Maiden guitarist Dave Murray use oft. He use this style in Aces High and Number of the beast solo and so on. A exemple is how you can do on the G-sting. It is very easy it is only bend and hammer-on/pull off and slide. Try it slowly and late try it faster and faster. I take it in E-minor
E|-----------------------------------------------------------------------
B|-----------------------------------------------------------------------
G|16b--16Rb--14h16p14h16s12h14p12h14s11h12p11h12s9h11p9h11s7h9p7h9--9b---
D|-----------------------------------------------------------------------
A|-----------------------------------------------------------------------
E|-----------------------------------------------------------------------

E|-----------------------------------------------------------------------
B|-----------------------------------------------------------------------
G|-9Rb-2v---2h4p2h4-4h5p4h5-5h7p5h7-7h9p7h9-9h11p9h11-11h12p11h12-12h14p-
D|-----------------------------------------------------------------------
A|-----------------------------------------------------------------------
E|-----------------------------------------------------------------------

E|-----------------------------------------------------------------------|
B|-----------------------------------------------------------------------|
G|-12h14-14h16p14h16-16h17p16h17-16---19-17-16-19-17-16-19b--19Rb--16----|
D|-----------------------------------------------------------------------|
A|-----------------------------------------------------------------------|
E|-----------------------------------------------------------------------|
Slide: This is a lick by John Petrucci. It is also a lick you can mix with E-minor
E|----19-------17--------15-------14--------12--------10--------12-------|
B|-17----17S15-----15S13----13S12-----12S10-----10S8------8S10-----------|
G|-----------------------------------------------------------------------|
D|-----------------------------------------------------------------------|
A|-----------------------------------------------------------------------|
E|-----------------------------------------------------------------------|
String Skipping: This is a few lick inspired by Paul Gilbert but it is also my idea. It is a string skipp you can do when you play in E-minor. If you put all licks togherher it can sounds cool.
   Lick 1                               Lick 2
E|---------------12------------------|--------------10-------------------|
B|-----------------------------------|-----------------------------------|
G|-----12-14-16-----16-14-12---------|----11-12-14-------14-12-11--------|
D|-14--------------------------14----|-12--------------------------------|
A|-----------------------------------|-----------------------------------|
E|-----------------------------------|-----------------------------------|
   Lick 3                               Lick 4
E|---------------15------------------|--------------17-------------------|
B|-----------------------------------|-----------------------------------|
G|-----14-16-17-----17-16-14---------|----16-17-19-------19-17-16--------|
D|-17--------------------------17----|-19--------------------------------|
A|-----------------------------------|-----------------------------------|
E|-----------------------------------|-----------------------------------|
Sweep: This is E-minor sweep's. This licks are very good when you do soloing. If you mix this licks I think it came be awesome
   Lick 1
E|-----------------------------------------------12-14-15-----|
B|--------------------------------------12-13-15--------------|
G|-----------------------------11-12-14-----------------------|
D|--------------------11-12-14--------------------------------|
A|-----------10-12-14-----------------------------------------|
E|--10-12-14--------------------------------------------------|

   Lick 2
E|-----------------------------------------------14-15-17-----|
B|--------------------------------------13-15-17--------------|
G|-----------------------------12-14-16-----------------------|
D|--------------------12-14-16--------------------------------|
A|-----------12-14-15-----------------------------------------|
E|--12-14-15--------------------------------------------------|

   Lick 3
E|-----------------------------------------------15-17-19-----|
B|--------------------------------------15-17-19--------------|
G|-----------------------------14-16-17-----------------------|
D|--------------------14-16-17--------------------------------|
A|-----------14-15-17-----------------------------------------|
E|--14-15-17--------------------------------------------------|
Lick 4(it is a mix of lick 1, 2 and 3 but you go diagonal on the fretboard)
E|-----------------------------------------------19-20-22-----|
B|--------------------------------------17-19-20--------------|
G|-----------------------------16-17-19-----------------------|
D|--------------------14-16-17--------------------------------|
A|-----------12-14-15-----------------------------------------|
E|--10-12-14--------------------------------------------------|
Tapping: I will learn you open strings tapping in E-minor... It is very easy
    T     T      T     T     T     T     T     T      T     T
E|-12-0-8-10-0-7-8-0-5-7-0-3-5-0-2----------------------------------5-0-2-|
B|---------------------------------5-0-2-7-0-3-8-0-5-10-0-7-12-0-8--------|
G|------------------------------------------------------------------------|
D|------------------------------------------------------------------------|
A|------------------------------------------------------------------------|
E|------------------------------------------------------------------------|
Now will I learn something I call Double Pentonic in E. You mix E and A pentonic
    T      T    T     T     T     T     T     T     T     T     T     T
E|--20-15-17-12------------------------------------------------------------|
B|--------------20-15-17-12------------------------------------------------|
G|--------------------------19-14-17-12------------------------------------|
D|--------------------------------------19-14-17-12------------------------|
A|--------------------------------------------------19-14-17-12------------|
E|--------------------------------------------------------------20-15-17-12|
Short Apejo: in E-Minor This is really hard for a beginner but also for me, but if you training every day I think you can play it clean and fast
E|--15-12----------12-14-10---------10-12-9---------9-10-7-------7-|
B|--------12----12----------10---10---------10---10--------8---8---|
G|-----------12----------------9---------------9-------------9-----|
D|-----------------------------------------------------------------|
A|-----------------------------------------------------------------|
E|-----------------------------------------------------------------|

E|--9-5-------5-7-3-------3-2-------2-3-0-----------|
B|------7---7-------5---5-----3---3-------0---------|
G|--------7-----------4---------2-----------0-------|
D|--------------------------------------------2-----|
A|----------------------------------------------2---|
E|------------------------------------------------0-|
And it was all for me. Sorry for my english (I can't write and speak english so well but I hope this lesson can help you) bye bye!
Comments
Your captcha is incorrect