Chromatic Warm-Up

author: 0000409D date: 09/20/2003 category: the basics
rating: 7.7 / votes: 33 
This is an angular lick to develop finger dexterity. Try this with the speed you're accurate at start off slow.
Key = chromatic

66 bpm

E |------------------------------3---1|4---2-------------------------------|
B |----------------------------4---2--|--3---1-----------------------------|
G |---------------------3---1---------|---------4---2----------------------|
D |------------3---1--4---2-----------|-----------3---1--4---2-------------|
A |---3---1--4---2--------------------|--------------------3---1--4---2----|
E |-4---2-----------------------------|-----------------------------3---1--|
Arpeggios You start off with A major, C Major, E major, C# Major, G major, B Major, and F# major... Start off slow then blast it all again...
Key = A
66 bpm

E |--------------5-9-----------|-------------------17-22-----------------|
B |------------5-----5---------|----------------17-------17--------------|
G |----------6---------6-------|-------------18-------------18-----------|
D |--------7-------------7-----|----------19-------------------18--------|
A |------7-----------------7---|-------19-------------------------19-----|
E |-5-10---------------------5-|-17-22-------------------------------17--|
More 0000409D lessons:
+ Playing Arpeggios Fast. Part 3 - Arpeggios From Hell Guitar Techniques 11/24/2003
+ Modes. Part 3 - Counterpoint The Basics 11/24/2003
+ Modes. Part 2: What Is Important To Learn About Modes? The Basics 11/24/2003
+ Modes. Part 1 - History And Use The Basics 11/24/2003
+ Playing Arpeggios Fast. Part 2 - What to Practice Guitar Techniques 11/24/2003
+ Guide To Chord Formation Chords 11/24/2003
+ view all
Comments
Your captcha is incorrect