Leech Lessons. Part 2 - Arpeggios

author: 0000409D date: 10/15/2003 category: the basics
rating: 3.2 / votes: 13 
some arpeggios on a jazz chord progression in Cm (F+7 Bb+7 Ebm Dm7b5 G+7 Cm6) Duration Legend --------------- W - whole; H - half; Q - quarter; E - 8th; S - 16th; T - 32nd; X - 64th; a - acciaccatura
  F+7
   |--3--| |-3--|  |------6------|  |-----6------|
   E  E  E E  E E  S  S  S S  S  S  S  S S  S S  S
|----------------------------------------9-11-9----|
|-------10----------------------------10--------10-|
|-10-------8----8-10---------------10--------------|
|----11------11------11---------11-----------------|
|-----------------------12-8-12--------------------|
|--------------------------------------------------|

     Bb+7
      |------6-------|  |------6-------|  |3-|
   a  S  S  S  S  S  S  S  S  S  S  S  S  Q  E  T  T  T  T  T  T  T  T
|----------------------14----------------------------------14-16-18-14---|
|-------------------15----15----------------------------15---------------|
|-10S15----------15----------15----15-13-15----------15------------------|
|-------16----16----------------16----------------16---------------------|
|----------17-------------------------------13-17------------------------|
|------------------------------------------------------------------------|

  Ebm
       |3-|            |--3--|
   Q   Q  E       Q    E  E  E
|-----16-----------------------|
|-16-----14pb16==14r-----------|
|------------------------------|
|---------------------16-------|
|------------------------18----|
|---------------------------18S|

  Dm7b5                                G+7
   |------6-------|  |------6-------|  |------6-------|  |------6-------|
   S  S  S  S  S  S  S  S  S  S  S  S  S  S  S  S  S  S  S  S  S  S  S  S
|----------------10-22-16----------------------------------------------------|
|-------------10----------18-------------------------------------------------|
|----------13----------------17-------------------16----------------16-22----|
|-------12----------------------18-------------17----17----------17----------|
|----11----------------------------20-------18----------18----18-------------|
|-10----------------------------------15-19----------------19----------------|

  Cm6
|-------*|
|-------*|
|-17----*|
|-------*|
|-------*|
|-------*|
More 0000409D lessons:
+ Playing Arpeggios Fast. Part 3 - Arpeggios From Hell Guitar Techniques 11/24/2003
+ Modes. Part 3 - Counterpoint The Basics 11/24/2003
+ Modes. Part 2: What Is Important To Learn About Modes? The Basics 11/24/2003
+ Modes. Part 1 - History And Use The Basics 11/24/2003
+ Playing Arpeggios Fast. Part 2 - What to Practice Guitar Techniques 11/24/2003
+ Guide To Chord Formation Chords 11/24/2003
+ view all
Comments
Your captcha is incorrect