Leech Lessons. Part 3 - Legato & Sweep

author: 0000409D date: 10/15/2003 category: the basics
rating: 4.7 / votes: 13 
Legato & sweep (Ebmaj9 Dm7b5 G+7 Cm9)
 Ebmaj9
|----------------------------------|-15h18p15p13------------------------|
|-------------------------14h17h18-|-------------17p14p11---------------|
|----------------10h12h15----------|----------------------12p10p8-------|
|--------8h12h13-------------------|------------------------------12----|
|-6h8h10---------------------------|---------------------------------13-|
|----------------------------------|------------------------------------|

 Dm7b5                                G+7
|---------------------------14h18h20-|----------------------------------------|
|-------------------9h13h15----------|----------------------------------------|
|------------------------------------|-------------------20h22p20-------------|
|----------10h12h15------------------|-------------17h21----------21p17p15----|
|------------------------------------|-------18h20----------------------------|
|-10h13h16---------------------------|-15h19----------------------------------|

 Cm9
|-------------------------------------|--------|
|-------------------15h16h20p16p15----|--------|
|----------12h15h17----------------17-|--------|
|-10h12h13----------------------------|--------|
|-------------------------------------|---15---|
|-------------------------------------|--------|

  Ebmaj9
|----------------------------|--------------6-10-6---------|
|----------------------------|------------8--------8-6-----|
|--------------------7-8-7---|----------7--------------8-7S|
|--------8---------8-------8-|--------8--------------------|
|-6-8-10---10-6-10-----------|--6--10----------------------|
|----------------------------|-----------------------------|

  Dm7b5                     G+7
|-----4-8-4-------4-8-4---|-------11-13-11------------------11-----|
|---6-------6---6-------6-|----12----------12------------12--------|
|-5-----------5-----------|-12----------------12-10---12-----------|
|-------------------------|-------------------------13-------------|
|-------------------------|----------------------------------------|
|-------------------------|----------------------------------------|

 Cm9
|-18-15----------------------------15-|---20---|
|-------16----------------------15----|--------|
|----------15----------------17-------|--------|
|-------------17----------17----------|--------|
|----------------18-15-17-------------|--------|
|-------------------------------------|--------|
More 0000409D lessons:
+ Playing Arpeggios Fast. Part 3 - Arpeggios From Hell Guitar Techniques 11/24/2003
+ Modes. Part 3 - Counterpoint The Basics 11/24/2003
+ Modes. Part 2: What Is Important To Learn About Modes? The Basics 11/24/2003
+ Modes. Part 1 - History And Use The Basics 11/24/2003
+ Playing Arpeggios Fast. Part 2 - What to Practice Guitar Techniques 11/24/2003
+ Guide To Chord Formation Chords 11/24/2003
+ view all
Comments
Your captcha is incorrect