by Passenger tabs | tabbed by DrWodka
1 2 3 4 5
2474 votes
print
View: All Comments Corrections Best Voted Corrections
+42   July 15 2012, 01:33 pm by henicholson99 |
Do you know the high note in the intro? I dont know how to explain it, but its not in your tab. Everything else is perfect though. This is my favorite tab on here. Thanks!
+29   September 18 2012, 07:11 am by hywelt |
Nice one - well done for posting
+7   September 18 2012, 07:14 am by gerkpei |
hey, do you reckon you can post the exact tab?
i just can't get the hang of the little notes in between he plays and this is one of my FAVOURITE songs !
+2   October 29 2012, 04:54 pm by clacks93 |
heard this guy on saturday for the first time when i went birmingham for ed's gig and thought this guy was amazing ! could you post the chords for his song i hate absoloutely loved that song ! good tab anyway sounds right
+1   December 15 2012, 08:42 am by Ripa75 |
this is a super cool song, thanks for posting. i love the intro.
-1   December 19 2012, 11:37 am by J03llV |
Make it a B7 and a D#m7 ( When you play with no capo )

With no capo chords are : B7 F# C# D#m7
+2   December 19 2012, 11:38 am by J03llV |
Woops, I meant a C7,G,D Em7

C7 on the 8th fret, G on the 7th, D on the 5th, and Em7 on the 7th
+1   December 19 2012, 04:13 pm by Coldmaroontrain |
Superb Tab! Absolutely LOVE it. Thanks for posting it!
+5   January 18 2013, 03:16 pm by ElyseGuitar |
Only the lyrics is a little wrong, but it's a wonderful tab :)
+2   January 27 2013, 08:46 pm by zodiak8900 |
I really appreciate the effort you put into this. It sounds almost perfect! The problem I have is that no, the intro is not easy to figure out. Would you not have written it out if it was? But no I guess that's not really a big problem. Thanks so much!
+26   February 20 2013, 08:55 am by Mutsheid |
It's not "Only know your lover when you let her go", it's "Only know you love her when you let her go" :)
+2   February 22 2013, 11:52 am by gnimmelfob |
Hi guys.
great song a thanks for the chords,,
do you know if it´s possibel and ok,,, to copy and paste into a word dok.
+1   March 5 2013, 12:01 am by frencha |
Here's the intro fully tabbed out as best I could hear.

*Edit* Ugh. The first "3" on the second line should be a "1". Should be pretty obvious to the ear which one. Wish you could edit the tab itself.
+16   March 8 2013, 03:15 pm by inimeany |
Passenger - Let her go

Capo 7
Intro

F G Am G
E --0-----|--------------0-|----------0-----|------------0---|----------0-----|
B 3---3-1-|----1---------1-|------1-3---3-1-|----1-------1---|3-------3---3-1-|
G --------|0h2-------2-----|--2-------------|0h2-------2-----|------0---------|
D --------|----3-------3---|----3-----------|----2-------2---|----0-------0---|
A --------|----------------|----------------|0-------0-------|----------------|
E --------|1-------1-------|1-------3-------|----------------|3-------3-------|

F G Am
--------------0-|3p0-----------0-|----------------|--------
----1---------1-|------1-1h3-----|----1---------1-|------1-
0h2-------2-----|----------------|----------2-----|--2-----
----3-------3---|----3-------0---|----2-------2---|----2---
----------------|----------------|0-------0-------|0-------
1-------1-------|1-------3-------|----------------|--------

G F G Am G
E --0-----|--------------0-|----------0-----|------------0---|----------0-----|
B 3---3-1-|----1---------1-|------1-3---3-1-|----1-------1---|3-------3---3-1-|
G --------|0h2-------2-----|--2-------------|0h2-------2-----|------0---------|
D --------|----3-------3---|----3-----------|----2-------2---|----0-------0---|
A --------|----------------|----------------|0-------0-------|----------------|
E 3-------|1-------1-------|1-------3-------|----------------|3-------3-------|

F G Am G
--------------0-|3p0-----------0-|----------------|----------------|
----1---------1-|------1-1h3-----|----1---------1-|------1-------0-|
0h2-------2-----|----------------|----------2-----|--2-------0-----|
----3-------3---|----3-------0---|----2-------2---|----2-------0---|
----------------|----------------|0-------0-------|0---------------|
1-------1-------|1-------3-------|----------------|--------3-------|
+3   March 15 2013, 01:54 pm by GundelSince2011 |
it has to be
Only know your love her when you let her go
everything else is great!
+1   March 17 2013, 08:55 am by danj4chilis |
great tab. and to tell the people who are looking for the noted between your tabs, they're played on piano
+4   March 18 2013, 02:29 pm by WaytoBeQuirky |
its just the open e string at the end of the bar :D
+1   March 19 2013, 02:30 pm by TalentFan |
i think you mean the open e string insted of the d (3th) and the b (first)
+1   March 24 2013, 09:27 pm by Jacob Gray |
If I'm right about the one you're thinking of, I think it's like a 3p0 on the e string, maybe?
+4   March 25 2013, 03:06 pm by kristine.svaza |
it's just that the lyrics are "only know you love her".. :)
March 26 2013, 02:24 pm by Ipek Köprülü |
It's good! :)
April 3 2013, 03:55 pm by Gyia1998 |
Thanks for this, i learned this song in like 10 minutes!!
April 6 2013, 08:29 am by stef.driessen.7 |
I play this one more than the fmj7 x the fmj7 on the third beat do the G then the Am and then the G then comes the chorus Fmj7-CG-Am-GGG Fmj7 than that is the prelude and chorus
+1   April 11 2013, 07:43 am by alexander.eil |
It' "Only know you love her " in the Intro !!!
+1   April 14 2013, 10:01 pm by Shae9897 |
Fantastic ;)
April 18 2013, 08:10 pm by hay-jay98 |
Brilliant! It's simple enough and almost exact. Thanks a tonne! :)
April 22 2013, 03:10 am by hay-jay98 |
I actually quite like it the way it sounds as it is, but there are plenty of different ways to play the one thing- I especially like this one!

Thumbs up, great job! Well done for posting :D
-3   April 25 2013, 10:04 am by lesadmick |
This is the 'exact' tab when played in capo 7 - the reason is that it is much easier with a capo. If you want the un-copo'd tab you need to +7 to all the numbers e.g. 0=7, 1=8, 2=9 etc.
May 2 2013, 03:00 pm by k8kennedy12 |
Nice one! You have it down to a point :) Thanks a million
May 5 2013, 01:29 pm by hazuing |
Everything you touch surely dies*
Chords are good though :P
+4   May 9 2013, 09:06 pm by Coldmaroontrain |
Sex is awesome!
+15   May 9 2013, 09:07 pm by Coldmaroontrain |
Srry my little brother came on my UG....
+3   May 21 2013, 09:04 pm by Casper1313 |
Nice Job except it is not, "only know your lover when you let her go", it is, "only know you love her when you let her go." It is hard to hear a difference but it doesn't make sense the other way
May 26 2013, 08:29 am by jedwardismygod |
I love this song, and it's just perfect for voice. Thank you so much for this tab!
May 28 2013, 01:08 am by aircom |
100% legit.thanks mate
May 28 2013, 03:27 am by joey knoxville |
can anyone help with stumming patterns
+2   May 28 2013, 06:50 am by joey knoxville |
Is the e string on the first thred using the thumb????
+1   May 28 2013, 08:55 am by joey knoxville |
i figured out an open A string sounds good
May 29 2013, 04:14 am by shreddguitarist |
make your own strumming pattern that's the beauty of chordal songs
-2   May 29 2013, 01:05 pm by reemnehme |
You can actually play this without a capo!
May 31 2013, 03:11 pm by immi.jayde1 |
Strumming pattern please
+1   June 1 2013, 04:51 am by p8ndus |
Nice tab but i think it is to light to play Capo at 7😻 i think at 1st is better
June 7 2013, 08:54 am by flowerpowergirl |
my fingers are to fat for capo 7th fret...
-1   June 11 2013, 03:28 am by aidan.bath |
the lyrics aren't quite correct but other than that, really good!
-1   June 11 2013, 10:24 pm by MFolstad |
lyrics are much better in here than the real song is
you could say anything you want when you sing this and it would be better
June 16 2013, 07:36 am by JordanSmith1603 |
im playing this song in my school concert with my girlfriend, i think it will bring us closer together :')
-3   June 17 2013, 09:23 pm by MFolstad |
you dumb ass
+1   June 18 2013, 08:58 pm by PeterKim2591 |
the second to last "and you let her go" doesn't exist in the song. double check of course. Thanks.
July 1 2013, 02:09 am by cherrystrat12 |
"only dies"
July 7 2013, 01:30 am by mrqueshy35 |
Sooooooooooooooooooooooooooooooo The last Chorus is just no point of the chords on the last chorus
July 11 2013, 12:25 pm by GracieG123 |
amazing thank you!!!! :)
July 15 2013, 01:26 pm by Dzeuss |
it's just for The Lyrics " Only know you love her when you ve let her go "
July 17 2013, 01:17 pm by rexboxy |
which was said twice already ;)
July 18 2013, 04:45 am by Tischi77 |
capo is on the 5th!?
July 22 2013, 04:59 am by kelvin.loc |
THE LYRICS FOR

Only know your lover when you let her go

is supposed to be

Only know you love her when you let her go

just to clarify
+1   July 22 2013, 03:27 pm by izzy jones |
some of the lyrics i think might be wrong but i love it thank you for posting this.
July 29 2013, 12:49 am by Elizaa |
Do you have the exact playing to the intro? Thanks a ton!! xx
August 4 2013, 06:58 am by HarveyC |
There shouldn't be any chords after the third line in the last verse/chorus
August 7 2013, 10:58 am by stripes206 |
This song is amazing. I love it. just a quick lyric correction, lover is actually love her.
August 9 2013, 10:51 am by Emeelie99 |
For the high note you do an FMaj7 shape with your pinky on the B string and you pluck B high E B and B and then B string again but without the pinky :)
August 11 2013, 09:51 pm by iHeartMusic1213 |
Amazing tab!
August 12 2013, 03:45 pm by ChrisCorgan |
Good tab, but there are bass notes being played with the melody that arent on here. :(
-5   August 13 2013, 11:31 am by MsJojo16 |
capo on 7, i really dont think so guy xD
i put it on 3
+1   August 17 2013, 11:16 pm by madelyn22 |
it is 7 man
August 23 2013, 01:14 am by WarnerMontreal |
are you sure it's not "only know YOU LOVE HER when you let her go"??
also, it's "everything you touch, surely dies"
-6   August 23 2013, 01:17 am by WarnerMontreal |
PLEASE CORRECT THE LYRICS!!!!!!!

"ONLY KNOW YOU LOVE HER WHEN YOU LET HER GO"

"EVERYTHING YOU TOUCH, SURELY DIES"

HAVE SOME RESPECT AND DECENT CONSIDERATION WHILE POSTING LYRICS FOR CRIMENY SAKES!!!!!
August 29 2013, 01:33 pm by GracieG123 |
i love it!!!!!!!!!!!!!!
September 6 2013, 01:22 pm by tweopy |
This is one of my favourite songs and this is a really good tab I know now it of by heart thank you. Brilliant
+3   September 12 2013, 11:36 pm by Rickmassacre |
it does my head in every time i see it say "LOVER"
September 20 2013, 10:52 am by KCameron |
Thanks for the song!
But, as a correction, the lyrics are "only know you love her when you let her go" instead of "only know your lover when you've let her go".
September 21 2013, 11:12 pm by tynab444 |
I don't know how to do F, is there any way to play it withough that chord?
September 23 2013, 10:05 am by tipsygypsy |
Loving it, hear this song nown again at work(not often enough) and I think its a cracker - thankyou for posting it <3
September 29 2013, 05:27 pm by lashyc |
only know YOU LOVE HER when you let her go
+1   October 4 2013, 06:41 am by NalaGleeson |
bottom string 3rd fret hammer on and pull off :)
October 6 2013, 08:06 pm by kamalz808 |
Here's a really great version of this song by Jasmine Thompson: http://www.youtube.com/watch?v=BIHrkqBFUL4
To play with her capo the 3rd
October 13 2013, 06:09 am by n/a |
not that hard???????what does 0h2 mean and 1hp i mean honestly.i havnt been playing guitar that long.y cant u just put sumthing simple?!
October 15 2013, 09:09 pm by olivia.summer.3 |
i really love playing guitar and i really wanted to learn more songs and i was just like oh i forgot about ultimateguitar.com i should get on that!!!!!lol
October 24 2013, 08:18 pm by missbieber247 |
thank you for posting these tabs are amazing and perfect
October 30 2013, 10:26 am by kyanderon |
play the F like a C. Where a C is x32010, play F like xx3210. You just slide your middle and ring finger up one string each.
October 30 2013, 05:41 pm by Laz1204 |
if the exact tab isn't that difficult, could you post it??
+1   November 2 2013, 06:53 pm by sbie2001 |
For my voice I prefer capo on 5th fret! Thanks for the awesome tab!
November 18 2013, 01:09 am by kamalz808 |
well this is a little late, but h usually means hammer on. so 0h2 means play open and then hammer (press down on w/ out picking) onto the 2nd fret.
November 20 2013, 08:16 am by henrynwall |
its 'only know your LOVER' nit 'only know your LOVE HER'. but otherwise sick tab ;) very nicely done
December 2 2013, 07:30 pm by kyle.murphy.731 |
In the
e|-----0----------------------
B|--3-----3--1-------1-----1--
G|--------------0h2--2--2-----
D|-------------------3----3---
A|----------------------------
E|----------------------------
sequence, I find that it sounds truer to the song if you play the last note open on the e string rather than first fret B string
+1   December 9 2013, 12:57 pm by sashaisepic |
yeah its top e 3rd fret. hopes this helps
December 9 2013, 12:57 pm by sashaisepic |
BRILLIANT!!!!!!!!!!!!!!!!!!!!!!!!!!!!!!!!!!!!!!!!
December 10 2013, 11:23 am by lucasjup |
awesome tab :D thank you so much
December 14 2013, 02:03 pm by rsimpson222 |
I've seen him play an Am7 live rather than an Am, but it sounds good either way! Great Tab!
December 19 2013, 07:13 pm by masterclaw360 |
this is really awesome tab! thanks
+1   December 19 2013, 09:39 pm by frencha |
|----0-----------------0---------0------
|--3---3p1-------1-----1-------3---3p1--
|-----------0h2------2-------2----------
|---------------------------------------
|---------------------------------------
|-----------1------1-----1-----3--------

|-----------0---------0-------------------3p0-
|-----1-----1-3-----3---3p1-------1-----1-----
|0h2------2-------0----------0h2-----2--------
|---------------------------------------------
|0------0-------------------------------------
|-------------3-----3--------1------1---------

|--------3---0----------------0----
|---1h3------1------1-----2-3---3p1-
|2-----------2---2-----------------
|----------------------------------
|----------0---0-------0-----------
|---3-----------------------3------
-3   December 29 2013, 03:50 pm by xPaperwings |
chords don't sound anything like the song..
January 5 2014, 02:00 am by Deebz |
Soooooooooooooooooooooooooooooooooo he claims the intro is so easy so why not post the more accurate version, you spent so much time on this less accurate tab
January 5 2014, 02:57 am by iplayguitar :) |
Cause hes a useless 4 chord faggot like 99% of people who actually like this song
January 5 2014, 08:17 pm by chocolateTARDIS |
I like it better without a capo but that's just my opinion :)
January 6 2014, 08:50 am by nicolam021 |
found the first bit hardest but after that easy
January 6 2014, 09:47 am by kthanos |
good job but your tabs are not complete. (in the end of your first tab)
January 7 2014, 12:13 am by forestlinzzz200 |
nice song, thanks for posting!:D
January 7 2014, 03:12 pm by finn rees |
epic works well
January 10 2014, 02:24 pm by WEAREPIONEERS |
Thanks so much I love this song but I don't like passenger
\
+1   January 10 2014, 08:35 pm by azurerocknroll |
is he correct?
January 18 2014, 05:40 pm by BillyTalent4Evr |
nice job realy epic version when play it *-*
January 20 2014, 07:30 pm by yoyocutie2 |
this is an amazing song with an amazing tab to go with it!!!!!!!!!!! great job
January 24 2014, 01:29 am by danielhoodcam |
Hey... Is there away to change your own tabs because I accidently made a mistake on one of mine...
January 24 2014, 05:38 pm by selina_ak |
Strumming pattern?
+2   January 26 2014, 02:57 pm by Laura120199 |
Good job man. But I prefer playing it in this way:

e|-----0-------------------0--|
B|--3-----3--1-------1-----1--|
G|--------------0h2--2--2-----|
D|-------------------3----3---|
A|----------------------------|
E|----------------------------|

the rest of the tab sounds exactly as the song :)
+1   January 26 2014, 10:29 pm by qwertydogman222 |
the high note in the intro is third fret on the high e string hope that helps!
January 27 2014, 04:37 pm by jmcmains12 |
What is the strumming pattern when he plays it?? thx
January 28 2014, 12:10 pm by devoncoteGM |
The highest note in he intro in 4th octave G pull-off E. Fairly easy to do.
January 28 2014, 12:14 pm by devoncoteGM |
for some reason I just can't get any chords to sound right on the 8th 9th and 10th frets.
+2   January 30 2014, 10:50 pm by cjgrahams1261 |
you can play any song without a capo...it just changes the key :P
February 2 2014, 10:20 am by michael.lindley |
pretty good
February 6 2014, 08:32 pm by minecraftedn0 |
Your love her when you let her go? No sense
February 19 2014, 12:27 pm by rockifuwill |
Good tab_very well done fits with the lyrics perfectly,well done
February 20 2014, 12:43 pm by stranger98 |
well done!!
Someone found out the other notes in the Intro?
+2   February 26 2014, 10:11 am by bear_sab92 |
the intro tab sounds perfect.. i just add some note that i thought exist in the song... the "[]" is the added note.. sry if its wrong..

e|-----0------------------[0]----0---------------0--------0------------------3p0-------0---|
B|--3-----3--1-------1----(1)-3-----3--1------1-----3--3----3--1-------1--[1]-----1h3--1---|
G|--------------0h2--2--2----------------0h2---[2]----------------0h2--2--2----------------|
D|-------------------3----3--------------------------------------------3-------------------|
A|--------------------------------------------0----------------------------------------0---|
E|----------------------------3---------------------3--3--------------------------3--------|
March 1 2014, 05:10 pm by des.travis.7 |
Sounds better with capo on 3rd fret.
March 8 2014, 08:03 am by tiliondc |
how do i play f on 7th fret?
March 14 2014, 07:13 pm by Lorne K. |
Great Job!! Intro sounds right!
March 15 2014, 05:07 pm by dayne.martinez. |
http://www.goliathguitartutorials.com/uploads/Let_Her_Go.pdf
here is the perfect tab, it is 100% accurate
+2   March 16 2014, 07:56 am by TheEldon |
I think I know what you are talking about I've found that second fret on G again after D3 and B1 keep in mind I started messing around with a guitar 3 weeks ago but i think its the right note :)

the 2 below
V
e|-----0--------------------------0-------
B|--3-----3--1-------1-----1---3-----3--1-
G|--------------0h2--2--2----2------------
D|-------------------3----3---------------
A|----------------------------------------
E|-----------------------------3----------
April 3 2014, 04:34 am by nathanclarke118 |
It wa mint
April 5 2014, 09:42 pm by mishacollins |
you can also omit the need for a capo completely by transposing down 5 steps
+1   April 11 2014, 11:41 pm by gabopk |
Capo in 7th fret..

I think that's what you're talking about...
-1   April 14 2014, 11:05 pm by SublimeTrees |
i like the sound without the capo :)
April 17 2014, 02:59 pm by rasmuseureniu |
Well Done! But in the lyrics at the bottom its cause you onle need, not well you only need.
April 18 2014, 01:13 pm by wsamuel92 |
the chord progression reminds me of Neil Youngs heart of gold. Still, what a tune!
April 24 2014, 09:45 am by Aceman42069 |
Yea henicholson the high note your looking for is on the third fret on the high E string.
May 14 2014, 10:06 pm by cloud1088 |
anyone else find it easier to hit the 3's on the low e string with your thumb? cuz thats what i do lol
May 28 2014, 08:22 pm by pringlebits |
7th if you tune your guitar properly...
May 28 2014, 11:48 pm by ricardo80m |
Can someone tab this song as he plays it here https://www.youtube.com/watch?v=MWziq1ndN7U AND https://www.youtube.com/watch?v=aPQCyQ5h4Dk ?
+1   May 31 2014, 02:16 pm by c.schiavella |
THIS SONG IS AWSOME
+1   June 6 2014, 12:33 am by fballjdawg |
e|-------------------------------0--------------0--------0-------------------3p0-------0---|
B|-------------------1-----1--3-----3--1------1----3--3----3--1-------1----1-----1h3---1---|
G|-------------------2--2----------------0h2---------------------0h2--2--2-----------------|
D|-------------------3----3-------------------------------------------3--------------------|

not sure how to make these, but i've been using 1st fret on B before the high 3p0
+1   June 6 2014, 12:33 am by fballjdawg |
e|-------------------------------0--------------0--------0-------------------3p0-------0---|
B|-------------------1-----1--3-----3--1------1----3--3----3--1-------1----1-----1h3---1---|
G|-------------------2--2----------------0h2---------------------0h2--2--2-----------------|
D|-------------------3----3-------------------------------------------3--------------------|

not sure how to make these, but i've been using 1st fret on B before the high 3p0
June 8 2014, 01:23 am by pineking27 |
--try this, I just add them.
---I think its a little correct ^^
Capo 7th Fret

e|-----0----------------------0-------0---------------------------------0------------------3p0--------0-----|
B|--3-----3--1-------1-------------3-----3--1------1--------3/5--3---3----3--1-------1---------1-1h3--1-----|
G|--------------0h2--2--2-0-------------------0h2-----2--0----------------------0h2--2--2------------------2|
D|-------------------3---------------------------------------------------------------3-------------------2--|
A|-------------------------------------------------0--------------------------------------------------0-----|
E|--------------1-------------1----3-----------------------------3--------------1--------------3------------|
+1   June 13 2014, 10:52 am by Downloader99 |
Its the first string
+1   June 15 2014, 03:00 am by tabs4u:) |
it is the G on the high E string (3rd fret)
June 19 2014, 07:39 am by Taylorswift321 |
Awesome tab works brill!!!:D
June 19 2014, 02:34 pm by sjonas |
its amaizinng
June 21 2014, 04:33 am by _ajayyy |
just wow amazing in every way
June 21 2014, 09:37 am by AlfredKwak |
Love this song...
June 24 2014, 05:43 am by Taylorswift321 |
Amazing tab!!! I love this song and all these chords are Per-Fect!!!!!
Whoop whoop!!!
July 8 2014, 06:08 pm by katelynn.horsma |
The way I play it using this tab, though it is great, to make it a lot easier all you have to do is play the top notes.
+1   July 10 2014, 09:58 am by smoothok |
Hi, this is my attempt at the intro, feel free to criticize.
This tab does not include the 2nd guitar part which plays the bass notes.
Also I haven't actually played this yet so feel free to correct it.

Standard Tuning No Capo

e|----7--------------------7------------7------------------7---5-----|
.B|-10---10-8-----8---------8------(8)10---10-8-----8-------8---7-----|
G|-----------7h9-------9-------9---------------7h9-------9-----------|
D|-------------------------------------------------------------------|
.A|-------------------------------------------------------------------|
E|-------------------------------------------------------------------|

e|----7----------------------10p7------------7-----------------------|
B|-10---10-8-----8---------8----------8-10---------------------------|.
G|-----------7h9-------9---------------------------------------------|
D|-------------------------------------------------------------------|
A|-------------------------------------------------------------------|.
E|-------------------------------------------------------------------|
July 10 2014, 11:42 am by jordyn.young102 |
its really good. sounds great
July 10 2014, 11:43 am by jordyn.young102 |
really nice job
July 16 2014, 09:08 pm by rockysloth |
http://www.goliathguitartutorials.com/uploads/Let_Her_Go.pdf
Here is a tab for Let her Go that I believe is spot on!
July 31 2014, 11:34 pm by links137241 |
what does the 0h2 mean ?
July 31 2014, 11:34 pm by links137241 |
what does 0h2 mean?
August 27 2014, 12:09 am by xlereight |
Your the beastt :D
August 27 2014, 08:38 pm by pickfish |
Lack of accuracy.
August 29 2014, 10:26 am by PMGuitarist |
The intro is complicated (that's just me)but the rest of the song is pretty simple
August 31 2014, 11:10 am by nathan27764 |
wow i mean thats amazing nice tab
+1   September 7 2014, 02:36 pm by kuhar12 |
I think this sounds more like the original :)

e|-----0-------------------0-----0-----------------0-------0------------------3p0------0---|
B|--3-----3--1-------1-----1--3-----3--1------1----1-3---3--3--1-------1---1------1h3--1---|
G|--------------0h2--2------------------0h2------0----------------0h2--2--2----------------|
D|-------------------3----3--------------------------------------------3-------------------|
A|--------------------------------------------0----------------------------------------0---|
E|----------------------------3----------------------3---3------------------------3--------|

e|-----0-------------------0-----0-----------------0-------0------------------3p0------0---|
B|--3-----3--1-------1-----1--3-----3--1------1----1-3---3--3--1-------1---1------1h3--1---|
G|--------------0h2--2------------------0h2------0----------------0h2--2--2----------------|
D|-------------------3----3--------------------------------------------3-------------------|
A|--------------------------------------------0----------------------------------------0---|
E|----------------------------3----------------------3---3------------------------3--------|
+1   September 7 2014, 02:41 pm by svismrdite |
yeah its awesome
September 8 2014, 01:51 pm by lsulsu4 |
Lack of accuracy. the tabs on the intro cannot be right. the frets it tells you to hit are way to low compared to the actual song.
October 5 2014, 10:35 am by timkchapman |
the way that I play it that sounds close is this:
e----0------------0-------0-------------0-----0---------------3p0-----0--
B--3---3-1-----1--------3---3-1-----1-----3-3---3-1-----1---1-----1h3----
G----------0h2---2--2-2---------0h2---2-------------0h2---2--------------
D------------------------------------------------------------------------
Please select
Post your    Comment OR Correction :

NOTE: If you want to post a tab,
please use [tab] [/tab] tag to do this.
© 2014 Ultimate-Guitar.com or its affiliates. All rights reserved     About | Help | Site Map | Link To Us | TOS | Privacy Policy | Advertise | Contact