by Van Halen tabs | tabbed by EVH is god
1 2 3 4 5
515 votes
print
View: All Comments Corrections Best Voted Corrections
+21   May 28 2005, 12:00 am by mikedeit |
I think this is pretty good! Even though you messed up on the part before the tapping solo. 5* tab any ways!
+26   May 29 2005, 12:00 am by eliottj |
This is the first correct Eruption tab I have ever seen. Plus you got the tapping part right. Thats the way Eddie does it!
+21   June 2 2005, 12:00 am by AC/DC_Rocks_Ang |
This is great, but you missed one divebomb right before the tremolo picking. Very nice tab.
-90   June 3 2005, 12:00 am by wprestidge1 |
bull***, none of the versions on here are correct
-68   June 3 2005, 12:00 am by wprestidge1 |
ass
-64   June 3 2005, 12:00 am by wprestidge1 |
good way to start tho
+35   June 5 2005, 12:00 am by ffbassplayer |
i thought it was great this is how my bands guitarist does it and i think its perfect definitely a 5 star rating
-53   June 22 2005, 12:00 am by lEcheloNl |
as accurate as anyone may ever think any of these tabs are, no one can tab that song correctly but ill give this one a try
+24   July 19 2005, 12:00 am by EVH is god |
Thanks for the great comments! But if some parts are wrong forgive me because it's hard to write the perfect tab just watching eddie do it on tape. lol
+24   July 23 2005, 12:00 am by GAC1989 |
[06/03/2005] by wprestidge1:
bull***, none of the versions on here are correct

maybe you just cant play it cuz this tab is amzing- 5 stars
+16   July 28 2005, 12:00 am by therockdawg1138 |
Closest I've ever seen. But Not 100% correct.

Its still freakin sweet.
+13   August 17 2005, 12:00 am by hepzibahbaptist |
its frikkin awesome dude 5*

but not 100%
great tab though
+9   August 22 2005, 12:00 am by the_bear_shark |
great tab, looks pretty hard tho...........
+6   September 11 2005, 12:00 am by wakeboarder |
nice, im knida a begginer ive only been playing for about a year or two but i just practice the tapping part, its not the hardest thing to do on guitar and its good excersice for yuor fingers, nice work, 5 stars
+5   September 13 2005, 12:00 am by pacsta rocka |
pshhhhhh nice try buddy no im jk this is the bomb even if its not 100% it freakin works
-29   September 25 2005, 03:12 pm by slipinkorn |
i can play it and ive been playin for only 3/4 of a year
-30   September 26 2005, 04:37 pm by we§§ie |
oh ya.... i could play it when i was only playing for 4 months and this tab kicks ass, awesome job dude!~!
+13   October 5 2005, 11:03 pm by NoQuarter2 |
Hey EVH always is playing this song different, so who cares if like 5% of it is like the original, as long as it sounds cool...
cheers
-NoQuarter2
+6   October 11 2005, 04:23 pm by <<Guitarded>> |
man that was the best tab ive ever seen on eruption or any of evh's music

btw if u wree wonderin the tapping is 12 5 8 5 x 8 then 13 5 8 5 x 8 then 13 7 10 7 x 8 etc...
but besides from that ive never seen better
+6   October 27 2005, 09:26 am by Ibanez_Brent |
nice job ive been lookin for the correct one for awhile. i luv the tapping rifff!
+4   December 12 2005, 06:23 am by mort1 |
nice
fritidspriblemer......
great tab
-10   December 17 2005, 07:25 pm by basketcase673 |
What's a Dive Bomb?
+7   December 27 2005, 01:40 am by bmclellan |
whammy bar dive
+4   December 27 2005, 06:29 am by italianrebel210 |
WOW
this is a great tab
-11   December 31 2005, 08:48 am by BassSurfer |
[12/17/2005 - 07:25 pm] by basketcase673 : |
What's a Dive Bomb?



lmao
+5   January 1 2006, 11:38 am by robt18 |
hahaha.. amazing tab, sounds awesome, 5*s
+5   January 14 2006, 03:02 pm by thelordofguitar |
kick ass tab man 5
+4   January 16 2006, 06:42 pm by fenderbender24 |
not bad, can u play it????
+11   January 17 2006, 03:46 pm by EVH is god |
Hey I've been trying to submit this tapping thing eddie does in some of his live solos but it got rejected 4 times so i decided to put it in here if thats alright. For all you who like the tapping riff from my eruption tab you will definatly like this one.


Legend

p = pull-off
T = tap
/ = slide up
\ = slide down

T T T T T T T T T T T T
E-------------------------------------------------------------------|
B--12p8-12p10-12p7-12p8-12p10-12p8-12p7-12p5-12p7-12p4-12p5-12p5/7--|
G-------------------------------------------------------------------|
D-------------------------------------------------------------------|
A-------------------------------------------------------------------|
E-------------------------------------------------------------------|

T T T T T T T T T T T
E-------------------------------------------------------------------|
B--12p8-12p10-12p7-12p8-12p10-12p8-12p7-12p5-12p7-12p4-12p5---------|
G-------------------------------------------------------------------|
D-------------------------------------------------------------------|
A-------------------------------------------------------------------|
E-------------------------------------------------------------------|

T T T T T T T T T T T T
E--12p8-12p10-12p7-12p8-12p10-12p8-12p7-12p5-12p7-12p4-12p5-12P5/7--|
B-------------------------------------------------------------------|
G-------------------------------------------------------------------|
D-------------------------------------------------------------------|
A-------------------------------------------------------------------|
E-------------------------------------------------------------------|

T T T T T T T T T T T
E--12p8-12p10-12p7-12p8-12p10-12p8-12p7-12p5-12p7-12p4-12p5---------|
B-------------------------------------------------------------------|
G-------------------------------------------------------------------|
D-------------------------------------------------------------------|
A-------------------------------------------------------------------|
E-------------------------------------------------------------------|

T T T T T T T T T T T T
E-------------------------------------------------------------------|
B--12p8-12p10-12p7-12p8-12p10-12p8-12p7-12p5-12p7-12p4-12p5-12P5/7--|
G-------------------------------------------------------------------|
D-------------------------------------------------------------------|
A-------------------------------------------------------------------|
E-------------------------------------------------------------------|

T T T T T T T T T T T
E-------------------------------------------------------------------|
B--12p8-12p10-12p7-12p8-12p10-12p8-12p7-12p5-12p7-12p4-12p5---------|
G-------------------------------------------------------------------|
D-------------------------------------------------------------------|
A-------------------------------------------------------------------|
E-------------------------------------------------------------------|

T T T T T T T T T T T
E-------------------------------------------------------------------|
B-------------------------------------------------------------------|
G--12p4-12p5-12p2-12p4------12p2------12p0--------------------------|
D----------------------12p5------12p4------12p2-12p2/4--------------|
A------------------------------------------------------12p5---------|
E-------------------------------------------------------------------|

T
E------------------------------|
B------------------------------|
G------------------------------|
D------------------------------|
A--12p4/7\5/9\7/10\9/12\10/14--|
E------------------------------|

And thats it. Now just in case you didn't read the top ill say it again I put this in the comments because this tab always got rejected by the site. So dont start making comments that I'm an idiot like the guy that put a bon jovi song in one of the metallica comments. i just out it in here so people could learn it.
+7   January 17 2006, 03:47 pm by EVH is god |
(tap all the 12's in the tab above)
+1   January 20 2006, 08:15 pm by pommegrenade |
u r GOOD change ur name to "I am GOD"
+5   January 28 2006, 07:52 pm by Dorian Hate |
Nice, it's not 100% right, but that's impossible. Good Tab, great for practicing the double tapping

Dorian
+6   February 8 2006, 07:55 am by van-halen rock |
yea great tab, i got the actual tab in front of me and there is not much difference., i gona b playin eruption on stage soon,..cant wait!
+4   February 8 2006, 05:51 pm by MindDecay |
I hope you guys know there is no wrong way to play eruption Eddy plays it diffrently every time..
+3   February 8 2006, 05:53 pm by MindDecay |
I hope no one thinks this tab is incorrect because technically there is no wrong way to play eruption..Eddy plays it diffrently every time
+3   February 10 2006, 09:39 pm by arpeggiosweeper |
this tab is got to be the best eruption tab i have seen,i was getting desperate to find a tab,i was about to spend 50$ on the official sheet music to learn it but this tab has done it for me its perfect 5 stars!
-3   February 14 2006, 10:46 am by elbazo |
Couple of notes,

The hammer on pulloff at the start should be

Eb--5------
Bb-5--8p5p0----5--8p5p0-----5--8p5p0
Gb-----------8------------8---------

and the hyper-picking pattern is
Eb---12-16-19-17-16-17-14-16-12

definately a 95%+ accurate tab tho
-10   February 18 2006, 01:49 pm by MindDecay |
Everyone who says this is a good tab..Question..Can you guys even play it..?
+3   February 21 2006, 06:03 am by my_last_hero |
This is a lovely tab.
+4   March 4 2006, 01:59 pm by *Hippie* |
I'm learning this song cause I heard it's good practice for building speed and skills. Everyone who thinks it's hard should give it a shot, cause it's not even as close to as hard as everyone thinks it is.
+2   March 4 2006, 05:02 pm by we§§ie |
I agree with *Hippie* lol it's really not that hard...usualy most songs are pretty easy to play but playing with the song or to speed is the hardest part about it. All i can say is just get all the notes and the 2 chords that are played throughtout the song/solo/warm up w/e the **** it is lol and just pratice it like nuts until ur fingers bleed and you can literally destroy this song. O ya forgot to give my comment of the tab..lol hmmmm...hmmmm pretty decent,to bad you copyed most of it from me *******!!!!!!!!!!!!

WE§§IE !!GOOD BAND!!
-7   March 5 2006, 02:38 pm by boldaslove |
i decided to take a look at this tab when i saw a 13 year old play eruption the other day... i figured it couldn't be as hard as i previously thought.

and i agree with MindDecay that half the people commenting probably can't even play smells like teen spirit let alone this song. you people all have too much to prove to eachother and no way to prove it.
-1   March 6 2006, 12:52 pm by SomeKindOfKirk |
My Friend Got This Song In The Total Guitar Mag(or TG for us)
And They Tabbed It in A Whole Different Mode*
But If You Built This Up To Speed It Sounds Good
*=Wel Not Whole Different But A Little Different Ya Forgot Some Parts :)
-4   March 28 2006, 01:28 pm by skinning lynyrd |
i dont understand tapping at all. if any1 could explain it it would be much apreciated
-22   April 17 2006, 09:48 am by The Lunatic |
Bullshit... none of you ass hole could pull off Eruption...
-7   April 17 2006, 10:34 am by The Lunatic |
i cant either, btw... but i play bass... shut up you! NEVER! ARGH! hmmm...............
+4   April 26 2006, 09:31 pm by Iron X Maiden |
"i dont understand tapping at all. if any1 could explain it it would be much apreciated"

From what I've learned (just a few days ago... shut up), it's really easy.

Here's an example- on the thinest string
Start with your left hand, first finger on the second fret. Then, use your right hand (middle or first finger, I prefer middle), and put it on the twelth fret (you go above the fret board with your right hand, unlike your left). You have just tapped (it's pretty much like hammering on). Then, release the right hand's finger from the ninth fret, but as doing so, push it down a little. This will make it play the second fret's not that your left hand is on. Then, now that your right hand isn't touching any frets and your left hand has your first finger on the second fret, hammer-on the to fifth fret, and hold that until you start back on the ninth fret. Once you start the tap on the ninth fret, let go of the fifth.
+3   April 26 2006, 09:40 pm by Iron X Maiden |
Sorry for second post but...

On last comment, I said twelth fret, all twelves in there are supposed to be nines.

Also, when tapping. make sure you put lots of pressure when the finger hits the fret, you want a solid sound, not just a weak little squeak.

And just try and repeat it over and over until you can get it going really fast and steady.

here it is again written
hand on 2 t9 h5 t9 h5 t9 h5 over and over again, remember to keep your first finger on the two though, that's the note you'll hear when you release the tap on the ninth fret.

After you get the hand of that, try this.

Do 2 t9 h5 t9 h5 a couple times then keep everything the same but more the nine to a ten so it's 2 t10 h5 t10 h5 t10 h5, and after that a couple times, more to 4 t12 h7 t12 h7 t12 h7

That's, from one tab, part of the tapping part in Eruption (except it's on the second string up, instead of the first, I just like playing it on the first because it plays easiuer and sounds better in my opinion.

Later
April 28 2006, 03:49 pm by tommo619 |
Wicked tab!!!!!

The tapping bit is quite easy =)
+2   April 29 2006, 06:08 pm by j_schneider |
man you should change your name to "i am god next to EVH"
frikkin sweet tab
+2   April 29 2006, 09:40 pm by IUseAPurplePick |
when i listened to this song, and he did the tapping part, i was like "holy crap...thats gotta be the hardest part of the song.." but lol it's the frickin easiest lol
sweet tab...5*
May 12 2006, 11:02 am by oakster |
The Lunatic is a dumbass.. he play bass so you probably have an IQ of 25 you ass hole. ha im friends with the guy who wrote this tab.. he is a better guitarist then you will ever be! he can play eruption exactly.. bitch
+1   May 22 2006, 05:35 pm by danno89 |
this is awesome, thanks a lot, thi really helped me. I remember trying to learn this song way to early on in my "guitar life" as it were, so i jus got scared and made it up, iv now re-learntit, and this tab is awesome...cheers dude..5 star.
Dan
May 26 2006, 12:04 pm by stevo_epi_SG_wo |
woo, nice tab, i have hand cramp now though :(
-3   May 30 2006, 08:35 am by the1nonlycrazi |
Wow this is a really good tab you must have spent hours learning to do this tab, from a video. If you did this tab by ear then your really good at tabbing music. Most of these tabs are so off that they arent worth anyones time. Yet this tab was so good i learned the entire song good job id give it a 4 star i only give 5's to perfect songs and theres a few mistakes in there
+2   May 31 2006, 09:37 pm by the spiker |
Just devote and hour or two on saturday to learning this tab. Start slow then u can speed up. Good tab.
+1   June 4 2006, 01:57 pm by darkenedmalice |
i don't feel like scrolling up but the people who were bragging that they learned this song in four months or whathever the hell it was need to shut up and get a life and also stop lying to themselsves anyway great tab can't play it yet still working best i've ever seen
-2   June 7 2006, 06:43 pm by jose763 |
i can't really hear what he plays after the 8p5p0 part
-4   June 10 2006, 01:46 am by guitargod_dime |
i dont have a whammy bar so i just hit the low e and detune it and then raise the note back to a e.......(if you dont have a whammy it works
-3   June 25 2006, 11:48 am by Mistress_Ibanez |
Oh thanks a lot this tab made me very pissed off.... this is one of those songs that makes almost every guitarist in the world feel like complete shit!!! its accurate though.
+2   July 2 2006, 11:48 am by pigglesworth |
Or it makes you feel like a guitar GOD when you can play it.
+1   July 10 2006, 10:06 am by LongLiveRock628 |
mistress ibanez, u r so right, i fell like such shit when i here this and one by metallica.

AWESOME TAB, NOW I CAN PLAY THE TAPPING PART, THE REST IS HARD AS HELL
-2   July 15 2006, 04:35 pm by FAST hands 99 |
idk man when i tap i dont hammer on after the firsdt pulloff ... ie
12p--9p--5-- and it sounds perfect as aposed to
12p--5h--9-- idk i guess its preference but think it sounds better my way
+1   July 16 2006, 04:26 pm by acefrehley |
this is good
+1   July 26 2006, 01:18 pm by gibson101 |
cool
+1   July 26 2006, 01:19 pm by gibson101 |
what effects do you use when you play it?
+1   July 27 2006, 05:06 pm by fullamularky123 |
i am a beginer and have only been playing for like three months but i have always wanted to play this and now i can just like eddie all because of this tab i give it five stars good job
August 1 2006, 06:10 pm by fullamularky123 |
hey minddecay ya i can ****n play smells like teen spirit so you can go suck a dick you probably don't even play guitar you ****in ******* just let people say what ever they want to say. who says you just suck balls and can't play worth a damn so it took you a whole ****n year to learn so just shut the **** up!!!!!!!!!!!!!!!!!!!!!!!!!!!!!!!!!!!!!!!!!!!!!!!!!!!!!!!!!!!!!!!!!!
-2   August 1 2006, 06:23 pm by fullamularky123 |
oh ya personally i think evh is god did a great tab and that it sounds perfect darkenedmalice, the lunitic, boldasolve, fenderbender24, you guys f u c k i n g suck balls you its like every damn one of you complains and bitches about every ones tabs why the fu ck do you even get tabs you dirty pieces of sh it go to hell this guy spent hours tabbing this and you lazy fat fu cks can't tab it your self then why critize you suck dick god damn go jack off in a corner or something and if any of you have a problem i live in broken arrow oklahoma and im 14 and go to north intermidate and my name is trevor and i am buff as hell so come over here and do something you ass holes jesus if knew you.
-1   August 1 2006, 06:25 pm by fullamularky123 |
ya great job evh is god way better than any ones eleses
-2   August 1 2006, 07:57 pm by fullamularky123 |
god damn i played agian like 5 times and it sounded perfecrt it was nsync with the song and i think you did a great job f u c k anyone who thinks different
August 7 2006, 08:04 pm by LongLiveRock628 |
uggh after a month of just this song i can play it. i did modify it a little but evh never plays it the same time twice and its good enough to make all though poser guitar players in my area quit out of frustration thanks so much
August 7 2006, 10:31 pm by nedthehead |
Thats an amazing tab! I can play it, Id give it a 98%. The part before the double tapping is off, and the tapping will never be perfect, but who gives a sit? Perfection!
BTW, if you have a bass as well (I have a Sqier Telecaster and P-bass) try the tapping part of Eruption on the E string. If done right, it sounds amazing!!!
August 12 2006, 01:15 am by droppedheart |
neeto neeto noice!!!!
August 18 2006, 01:47 pm by gibson101 |
what effects are used when playing this?
August 20 2006, 02:47 pm by nedthehead |
@Gibson101: Distortion, a phaser, and some reverb whgile tuned 1/2 step down.
August 22 2006, 08:28 am by gibson101 |
ok thanks i use a boss me 50
August 22 2006, 06:05 pm by gibson101 |
what is the name of your effect pedals and what are the settings
+2   August 22 2006, 06:16 pm by JacksonRR82 |
how the ehll did u tab that...dude ur amazing
August 23 2006, 10:16 am by EVH is god |
Here are the exact numbers for each effect on my Boss GT-8

Phaser: Sub Delay: Reverb:
Type - Stage 4 Delay Time - 400ms Type - Plate
Rate - 50 Feed Back - 40 Rev Time - 4.0s
Depth - 50 Effect Level - 10 Low Cut - 110Hz
Manuel - 55 High Cut - 6.00Hz
Resonance - 0 Density - 10
Effect Level - 100 Effect level 100

Compressor:
Sustain - 50
Attack - 50
Level - 50
+3   August 23 2006, 10:23 am by EVH is god |
Sorry the site pushed all the numbers together so here they are again

Phaser:
Type - Stage 4
Rate - 50
Depth - 50
Manuel - 55
Resonance - 0
Effect Level - 100

Sub Delay:
Delay time - 400ms
Feed Back - 40
Effect Level - 10

Reverb:
Type - Plate
Rev Time - 4.0s
Low Cut - 110Hz
High Cut - 6.00Hz
Density - 10
Effect Level - 100
August 28 2006, 07:03 pm by Chickenfrmheck |
holy f***ing hell man nice tab looks pretty right to me i can barely play it and i have to cut it way down at that but way to go and evh is a true guitar god
September 1 2006, 06:29 am by Oasis-fanatic |
wow if only i could play it i could rate xD
September 1 2006, 06:29 am by Oasis-fanatic |
it
September 1 2006, 08:38 pm by acefrehley |
i think it is a good tab. i can play it. its really not that hard if you know what ur doin...
September 6 2006, 07:32 pm by srv_king |
yeah this song actually isnt as hard as everybody says it is. its hard if your playing it note for note though i guess but i just played thru it for about half an hour and once you get the idea and your arm stops cramping up on the taping then its not to hard.
September 8 2006, 06:56 pm by l3fty_g3n1u5_89 |
holy sh*t i could not even condesent to play this
holy sh*t
+1   September 8 2006, 10:16 pm by LongLiveRock628 |
its not the hardest thing. i can play it. if u get used to the style its not that hard
September 8 2006, 10:26 pm by |T4Z| |
this is really easy...especially the tapping...that rules
September 21 2006, 10:08 am by The_blind_kid |
oakster needs to shut hos mouth, he wishes he was friends with the guitar-deity who tabbed this window to the soul from Eddie Van Halen.
September 22 2006, 06:40 pm by SomeGuitarPlayr |
=\ I have the offical tab, and this is actually nothing like it. I know the offical tab isn't always right, but the problem is that this tab sounds nowhere near as good as the offical one lol. Its better than the rest though, i'll give you that. Not even the offical tab has the fast pull-offs/hammer ons fully correct though (basing this off of my own hearing... and about 10 other peoples lol). They're close, but not perfect, so i wouldn't expect a normal guitar player could figure it out exact either.
October 8 2006, 11:26 am by i<3myteli |
this songs easy for everyone who leaves comments here. if the tab isnt right...FIGURE IT OUT URSELVES. just play it on ur pc slow and u can hear every detail, unless u dont know what a pinch harmonic is or tapping which is a little sad. none the less this tab may not be perfect but is pretty accurate good job to whoever did this.
October 17 2006, 03:54 pm by St.Jimmy13 |
EVH is god? ummmm i have a question. how have u seen van halen play this ona tape if every time he plays eruption , he changes it, none are the same lol .sorry, i just had to ask
October 29 2006, 02:58 pm by CoolNamesTaken |
man... holy shit... must have taken u a LONG time to tab this. best tab out thereof this song 5 stars PERFECT JOB MAN
October 29 2006, 06:56 pm by VANHALENSMASTER |
You nowhats goin' on bro 5*
-2   November 10 2006, 01:39 pm by gibson101 |
i have boss me-50
-6   November 19 2006, 11:08 pm by randylivs4ever |
good job. (needs work) and also for all the people out there who think EVH is god listen to some yngwie malmsteen and then tell me whos god...
+1   November 22 2006, 02:26 pm by Guitarmanmatt |
holy **** that looks hard ive only been playing a year i think ill leave it for a bit
-1   November 27 2006, 04:41 pm by thewallistohigh |
GREAT tab... you might be the closest to the right version as i have ever seen

you guys are all idiots, at least the ones that say this song is easy, no one here can play it a tenth as good as eddie. stop giving yourself all that credit you skanks... especially the people like T4Z


[09/08/2006 - 10:26 pm] by |T4Z| : |
this is really easy...especially the tapping...that rules


you make me sick... you probably dont even know how to tune your guitar you b****.. ah oh well i just thought i would say that
-1   November 27 2006, 04:41 pm by thewallistohigh |
GREAT tab... you might be the closest to the right version as i have ever seen

you guys are all idiots, at least the ones that say this song is easy, no one here can play it a tenth as good as eddie. stop giving yourself all that credit you skanks... especially the people like T4Z


[09/08/2006 - 10:26 pm] by |T4Z| : |
this is really easy...especially the tapping...that rules


you make me sick... you probably dont even know how to tune your guitar you b****.. ah oh well i just thought i would say that
GOOD DAY
-7   November 29 2006, 12:21 am by randylivs4ever |
!!!!!!!!!!!!!!!!!!!!!!!!!!!!!!!!!!!!!!!!!!!!!!!!!!!!!!!!!!!!!!!!!!
for all the people out there who think EVH is god listen to some!! yngwie malmsteen and then tell me whos god!!!!!!!!!!!!!!!!!!!!!!!!
!!!!!!!!!!!!!!!!!!!!!!!!!!!!!!!!!!!!!!!!!!!
+1   December 5 2006, 09:24 pm by Dewey1040 |
EVH is god, if it wasnt for EVH yngwie never wouldve gotten where he is, yngwie used a lot of eddies style, eddie is the most influential and innovative guitar player of all time except for hendrix, period end of story.
-1   December 11 2006, 11:19 pm by randylivs4ever |
Dewey1040, well that may be true but malmsteen is still much better. like arpeggios and other shit like that is hard to make into a 6:00min song. i wanna see you do that!!!
+1   December 31 2006, 02:12 pm by Pofessor |
Dewey1040, ur a fag, i've never heard of this guy, and i can't see anyone being better than EVH. So shutup and get a life.
*LOSER*
+1   January 2 2007, 05:25 am by Zwart |
I can play it! thanks a lot for this tab! the other tabs were awfull! and Yngwie Malmsteen can play guitar but it doesn't sound as good as Eddie!
+1   January 4 2007, 07:23 pm by Bonemurder |
eddy van halen is a beast
-1   January 6 2007, 02:24 pm by harley_smith |
omg you are a god in your own right legend tab! that guy was right about him playing it live! xx :)
January 7 2007, 03:02 pm by c-rob6422 |
Rock On man! this tab kicks @$$
-1   January 14 2007, 02:40 pm by domedeed123 |
Nice man juist wanted to say that this can really boost your confadence when you play thanks =!!!!!!!!!!!!!
+3   January 15 2007, 11:14 pm by Kevin67 |
For everyone who is sayin that malmsteen is better than Van Halen:

sure malmsteen can play faster than van halen but that's not what makes a guitarist.
Speed helps but it's really the emotion they put into the instrument.
Saying malmsteen is better than VH is like saying that the guys from dragonforce are better than hendrix. Sure they may be able to play much faster but they don't even come close to him in musicianship, improvisation and phrasing.
Yes, Malmsteen can play 400bpm arpeggios but he's a cocky ****er and EVH is a much better musician. Plus Eddie basically invented tapping.
January 15 2007, 11:31 pm by Kevin67 |
also good tab but you missed a lot of pinch harmonics
-2   January 19 2007, 09:17 pm by St.Jimmy13 |
THERES ONLY LIKE ONE PINCH HARMONIC AND HE HAS IT U LOSER! GO BRONSON AND SPENCER
-1   January 24 2007, 12:23 pm by davido440 |
http://www.youtube.com/watch?v=7xjcsJgBmwc is he better that van halen himself?????
January 24 2007, 06:57 pm by sopranoman1771 |
this tab is awesome. my friend showed me how to do the tapping and i got that pretty easly but i didn't know the notes so this is great! thank you
January 27 2007, 08:04 pm by fornofftogo |
van halen is god!!!! very good tab 5 stars
February 3 2007, 09:27 pm by greendayfan3358 |
ok some people said they could play this after four months or 3 fourths of a year. are u kidding! thats amazing. ive been playing for a year, and ill try but i doubt ill get it.
February 3 2007, 09:27 pm by greendayfan3358 |
btw nice tab!
February 4 2007, 01:29 am by greendayfan3358 |
wow i thought the tapping would be impossible, but its really easy and its so awesome!
February 6 2007, 08:03 pm by [travis] |
The tapping on this tab is easier than the official tab book, which is a good thing. Excellent tab.
February 12 2007, 01:28 pm by SlipKnot989 |
randylivs4ever you should shut up! who cares whether malmsteen is better than eddie. They both rock but eddie is better, and malmsteen is alway drunk! awesome tab by the way.
February 12 2007, 03:20 pm by SlipKnot989 |
oh yea and LongLiveRock628, one by metallica is easy! ive been playing for like 10 months and i got that song!
February 13 2007, 02:16 pm by domedeed123 |
there really isn't a 100% right cause he plays it different all the time hes just having fun with it on stage but this is like the coolest tab i like the one up there to dude its sweet
February 13 2007, 02:28 pm by domedeed123 |
p.s i like your bandi found out how to play the frogoten song its pretty sweet
February 14 2007, 12:28 am by domedeed123 |
sry for all the comments but i just read the malmsteen comment and i have to agree with kevien67, thats exacly what i think man no matter how fast you play if you don't put it all in with emotion and melody it dosnet mattter. i am not sayin that malmsteen donset have that i love him, but i have to say EVH is better
February 27 2007, 07:47 am by kj_se |
loved it. Thanks
March 1 2007, 10:20 pm by Frusconbage |
I am sure it is a good tab, but its too hard to read and then play.
March 7 2007, 10:24 pm by SLIP(SIC)KNOT |
niceee. how long did it take you lol?
March 9 2007, 07:57 pm by gibson101 |
i got a line 6 spider 3
March 12 2007, 12:39 am by Voodoo_Zeppelin |
VAN HALEN IS TRULY A GOD,

P.S. he said in an interview he didn't play it right in the album, I wondered how he really wanted it to sound.

March 21 2007, 12:21 pm by axe_man |
5* tab!!! the tappin bit is awsum, n no1 cares if it's not 100% right it still sounds gr8
March 22 2007, 09:54 pm by t1rider |
This tab is awesome EVH is the best guitarist of all time! have you ever heard that guy warm up back stage his sweep picking is ridiculous he doesn't just move from E to e he goes up and down the neck too this tab is a 5*
March 28 2007, 09:01 pm by hextorkg |
awsommee thx man this is great!!! 5*
March 30 2007, 11:54 pm by randyrhoads723 |
Hey amazing tab dude, ha its crap when people say that beginnners can't play this, i've been playing for a couple of months and i can play everything from the tremelo picking on
the beginnigs harder for me lol well thanks 5*'s
April 1 2007, 04:14 pm by Metallica333 |
this tab is great...amazing...but ive only been playing for like 3 months and can u guys explain what is chicken picking ?? tremelo picking?? i know tapping but whats the other 2????
April 12 2007, 04:25 am by elmo.ism3 |
man tremolo picking is alternate picking but REALLY REALLY FAST!!! as far as i know... correct me if im wrong... and chicken picking is like muting on the down st... i have f*cking idea man XD
May 15 2007, 03:29 pm by Mazzakazza |
I love the fact that this was developed as a warm-up exercise by E. Van Halen. It just makes me laugh. "K, shred at 100mph...yeah. Sounds a good way to warm up. Then double-tap for ages...yup...kewl."

Thanks for the great tab, 5*s, definitely.
May 20 2007, 09:58 pm by Ibanezax372 |
When you break this song/warm-up down it is very not all that difficult. Eddie Van Halen is using a combination of the "EVH" scale and A Minor Pentatonic Blues. Yes it will take time to learn and master certain parts because of the speed factor but it is all pretty basic.
May 26 2007, 10:02 pm by DNG |
hey i cant play this song perfectly but, honestly, its not that hard. like ibanezax372 said, just break it down, the hardest part is the speed and when you have the notes right just speed up, not a very hard song, EVH has much harder
May 27 2007, 03:27 pm by Stoopid Hawaiin |
very nice i tap on the 3rd string though 12p8p5 but either way works 5
June 4 2007, 01:47 am by Negative_Creep7 |
^same here, it sounds a bit high on B but I haven't heard the song in a while though
June 4 2007, 12:31 pm by oyoyoytnt! |
you could change this song in a hundred places and it would still sound right, go to youtube.com and search eruption and look at different evh videos and u'll see that he plays it differently everytime
June 6 2007, 12:30 am by 5e1v5h0 |
eddie is the best
June 9 2007, 12:19 pm by uninsane_guitar |
amzing tab. completly accurate except for the tremelo picking part, but other than that is is a good as it can get! besides, eddies like jimmi hendrix, he never plays a song the same way twice. good tab. may the shredders live on!
June 11 2007, 11:47 am by blue_jello47 |
[08/01/2006 - 06:23 pm] by fullamularky123 : |
oh ya personally i think evh is god did a great tab and that it sounds perfect darkenedmalice, the lunitic, boldasolve, fenderbender24, you guys f u c k i n g suck balls you its like every damn one of you complains and bitches about every ones tabs why the fu ck do you even get tabs you dirty pieces of sh it go to hell this guy spent hours tabbing this and you lazy fat fu cks can't tab it your self then why critize you suck dick god damn go jack off in a corner or something and if any of you have a problem i live in broken arrow oklahoma and im 14 and go to north intermidate and my name is trevor and i am buff as hell so come over here and do something you ass holes jesus if knew you.




lol i find the last part of this comment quite funny =D
-3   June 14 2007, 10:40 pm by brett dixon |
great tab evh is a god (so am I, lol) 5 stars
-6   June 20 2007, 05:47 pm by hammetjunior13 |
this is wrong, i have the book, the tapping part is wrong, and some parts in the verse, but it looked like it took u a long time so three stars ***
-28   June 20 2007, 11:22 pm by brett dixon |
this tab sucks













































































































































































































































































































































































































































































































just kidding actually its great it sounds perfect and stuff

and for hammetjunior13, the books arent' perfect either pal they are also tabbed out by guitarists not the actuall artists so [beep] you!!

great tab by the way
-14   June 20 2007, 11:24 pm by brett dixon |
Early days (1981-83)
Metallica was formed in Los Angeles, California, in October 1981 by guitarist and vocalist James Hetfield and drummer Lars Ulrich, after both placed classified advertisements in the publication The Recycler about forming a band.[citation needed] The duo recruited bassist Ron McGovney, and the early incarnation of the band went through a number of members, including Dave Mustaine and Ron McGovney. Metallica got its name when San Francisco-area metal promoter Ron Quintana asked Lars to help pick out a name for his new magazine to promote U.S. and British metal bands. Quintana came up with a list that included "Metallica," while Lars suggested "Metal Mania," or "Hesse," he decided to use "Metallica" for the band name.[citation needed]

The band's music was inspired by bands such as Deep Purple, Black Sabbath, Diamond Head, Motörhead, Saxon, Thin Lizzy, Mercyful Fate, Venom and other, mainly British, metal bands. They also took inspiration from punk bands like the Misfits, Zeroption, and The Ramones and UK hardcore bands such as Discharge.

In early 1982, Ulrich convinced Metal Blade's Brian Slagel to include the song "Hit the Lights" on the first Metal Massacre compilation. Desperate for a full time lead guitarist, Ulrich posted an ad in a local newspaper. Dave Mustaine from Huntington Beach, California, who at the time was playing in the band Panic responded and met for an audition. Ulrich and Hetfield were so impressed with Mustaine's warm-up and equipment, they asked him to join before the audition even began.


An early business card (circa 1982). The band's self titled demo would later take its unofficial name from this same card.In March and April of 1982, several demos were recorded with this lineup including Hit The Lights, Ron's Garage (which was recorded in McGovney's garage) and the Power Metal demo. A few months later the band recorded a full demo, No Life 'Til Leather, which quickly drew attention on the underground tape trading circuit. They then went on to release a live demo titled Metal Up Your Ass.

Later that year, Ron McGovney left the band and Metallica asked Trauma bassist Cliff Burton to join. Burton agreed if the band would relocate to his hometown in Castro Valley, CA. With Burton the band recorded the Megaforce Demo. After establishing themselves in the Bay Area thrash metal scene, Metallica traveled to the New York Tri-State Region in 1983 at the urging of promoters Jon and Marsha Zazula. After a few gigs the band signed with the Zazulas' new label, Megaforce Records. Shortly after being signed, Ulrich and Hetfield decided Mustaine's aggressive and disruptive behavior (related to alcohol and drug use)[citation needed] was becoming too much to handle. Kirk Hammett was brought in from the band Exodus, and Mustaine was fired, soon to create the thrash band Megadeth.


[edit] Thrash metal pioneers (1983-86)
Please help improve this article by expanding this section.
Further information might be found on the talk page or at requests for expansion. Please remove this message once the section has been expanded.
This article has been tagged since April 2007.


[edit] Kill 'Em All
Main article: Kill 'Em All
In late spring 1983, the band travelled to Rochester, New York to record their first album,"Metal Up Your Ass." However, due to conflict with the record label regarding the title, the album was later renamed Kill 'Em All. The album was not an initial financial success, but it earned them a growing fanbase in the underground metal scene. Despite the animosity, Dave Mustaine, who would go on to fame with his band Megadeth, still has co-writing credits on "Jump in the Fire", "Phantom Lord", "Metal Militia" and the notable "The Four Horsemen" (originally titled "The Mechanix" and listed as such on early demo tapes). Another early favorite was "Seek & Destroy." The 1989 re-release included fan favorites "Am I Evil?", from Diamond Head, and "Blitzkrieg" from the band Blitzkrieg, which were later included in their Garage album.


[edit] Ride the Lightning
Main article: Ride the Lightning
A year later, Metallica released Ride the Lightning. The album's inclusion of a slower, more introspective song, "Fade to Black", set Metallica apart from other thrash bands. Despite some claims of selling out, classic fans note this album has many worthy numbers. In addition to the title track and "Fade to Black", it boasts "For Whom the Bell Tolls", "Creeping Death", and the 9-minute instrumental "The Call of Ktulu." Dave Mustaine still has credits recognized for "Ride the Lightning" and "The Call of Ktulu".


[edit] Master of Puppets
Main article: Master of Puppets
When Ride the Lightning caught the attention of major labels, Metallica signed with Elektra Records. Their first release with Elektra was 1986's Master of Puppets, which would serve as their breakthrough album. Despite the fact that no singles were released from the album, the band received minor airplay from album tracks "Master of Puppets" and "Welcome Home (Sanitarium)". Fans looking for an alternative to hair
+1   June 20 2007, 11:25 pm by brett dixon |
great tab!!!
-13   June 20 2007, 11:26 pm by brett dixon |
great tab!!!great tab!!!great tab!!!great tab!!!great tab!!!great tab!!!great tab!!!great tab!!!great tab!!!great tab!!!great tab!!!great tab!!!great tab!!!great tab!!!great tab!!!great tab!!!great tab!!!great tab!!!great tab!!!great tab!!!great tab!!!great tab!!!great tab!!!great tab!!!great tab!!!great tab!!!great tab!!!great tab!!!great tab!!!great tab!!!great tab!!!great tab!!!great tab!!!great tab!!!great tab!!!great tab!!!great tab!!!great tab!!!great tab!!!great tab!!!great tab!!!great tab!!!great tab!!!great tab!!!great tab!!!great tab!!!great tab!!!great tab!!!great tab!!!great tab!!!great tab!!!great tab!!!great tab!!!great tab!!!great tab!!!great tab!!!great tab!!!great tab!!!great tab!!!great tab!!!great tab!!!great tab!!!great tab!!!great tab!!!great tab!!!great tab!!!great tab!!!great tab!!!great tab!!!great tab!!!great tab!!!great tab!!!great tab!!!great tab!!!great tab!!!great tab!!!great tab!!!great tab!!!great tab!!!great tab!!!great tab!!!great tab!!!great tab!!!great tab!!!great tab!!!great tab!!!great tab!!!great tab!!!great tab!!!great tab!!!great tab!!!great tab!!!great tab!!!great tab!!!great tab!!!great tab!!!great tab!!!great tab!!!great tab!!!great tab!!!great tab!!!great tab!!!great tab!!!great tab!!!great tab!!!great tab!!!great tab!!!great tab!!!great tab!!!great tab!!!great tab!!!great tab!!!great tab!!!great tab!!!great tab!!!great tab!!!great tab!!!great tab!!!great tab!!!great tab!!!great tab!!!great tab!!!great tab!!!great tab!!!great tab!!!great tab!!!great tab!!!great tab!!!great tab!!!great tab!!!great tab!!!great tab!!!great tab!!!great tab!!!great tab!!!great tab!!!great tab!!!great tab!!!great tab!!!great tab!!!great tab!!!great tab!!!great tab!!!great tab!!!great tab!!!great tab!!!great tab!!!great tab!!!great tab!!!great tab!!!great tab!!!great tab!!!great tab!!!great tab!!!great tab!!!great tab!!!great tab!!!great tab!!!great tab!!!great tab!!!great tab!!!great tab!!!great tab!!!great tab!!!great tab!!!great tab!!!great tab!!!great tab!!!great tab!!!great tab!!!great tab!!!great tab!!!great tab!!!great tab!!!great tab!!!great tab!!!great tab!!!great tab!!!great tab!!!great tab!!!great tab!!!great tab!!!great tab!!!great tab!!!great tab!!!great tab!!!great tab!!!great tab!!!great tab!!!great tab!!!great tab!!!great tab!!!great tab!!!great tab!!!great tab!!!great tab!!!great tab!!!great tab!!!great tab!!!great tab!!!great tab!!!great tab!!!great tab!!!great tab!!!great tab!!!great tab!!!great tab!!!great tab!!!great tab!!!great tab!!!great tab!!!great tab!!!great tab!!!great tab!!!great tab!!!great tab!!!great tab!!!great tab!!!great tab!!!great tab!!!great tab!!!great tab!!!great tab!!!great tab!!!great tab!!!great tab!!!great tab!!!great tab!!!great tab!!!great tab!!!great tab!!!great tab!!!great tab!!!great tab!!!great tab!!!great tab!!!great tab!!!great tab!!!great tab!!!great tab!!!great tab!!!great tab!!!great tab!!!great tab!!!great tab!!!great tab!!!great tab!!!great tab!!!great tab!!!great tab!!!great tab!!!great tab!!!great tab!!!great tab!!!great tab!!!great tab!!!great tab!!!great tab!!!great tab!!!great tab!!!great tab!!!great tab!!!great tab!!!great tab!!!great tab!!!great tab!!!great tab!!!great tab!!!great tab!!!great tab!!!great tab!!!great tab!!!great tab!!!great tab!!!great tab!!!great tab!!!great tab!!!great tab!!!great tab!!!great tab!!!great tab!!!great tab!!!great tab!!!great tab!!!great tab!!!great tab!!!great tab!!!great tab!!!great tab!!!great tab!!!great tab!!!great tab!!!great tab!!!great tab!!!great tab!!!great tab!!!great tab!!!great tab!!!great tab!!!great tab!!!great tab!!!great tab!!!great tab!!!great tab!!!great tab!!!great tab!!!great tab!!!great tab!!!great tab!!!great tab!!!great tab!!!great tab!!!great tab!!!great tab!!!great tab!!!great tab!!!great tab!!!great tab!!!great tab!!!great tab!!!great tab!!!great tab!!!great tab!!!great tab!!!great tab!!!great tab!!!great tab!!!great tab!!!great tab!!!great tab!!!great tab!!!great tab!!!great tab!!!great tab!!!great tab!!!great tab!!!great tab!!!great tab!!!great tab!!!great tab!!!great tab!!!great tab!!!great tab!!!
-4   June 20 2007, 11:27 pm by brett dixon |
This is the tab for the album version of Eruption. Enjoy! It's a tough one!

Legend:
~ = vrabrato
p = pull off
b = bend
r = release note from bend
h = hammer on
+ = tap
w = whammy bar
/ = slide
/X = pick slide
pm = palm mute
(ps) = pick squeel or pinch harmonic
DB = dive bomb
/-\ = slide up and back down the neck quickly on that string

Effects To Use:
- Reverb
- Phaser
- Slight Delay
- Compressor

ok lets get started first you have to tune your guitar down half a step so the tuning is

Eb Ab Db Gb Bb Eb


E--------------------------------------------------------------------------------------|
B-------------------------------5-8p5p0-8p5p0-8p5p0-8p5p0-8p5p0-8p5p0-8p5p0------------|
G-----2----------5-7b(ps)r-p5-7--------------------------------------------------------|
D--/X-2------5-7-----------------------------------------------------------------------|
A--/X-0--3/7---------------------------------------------------------------------------|
E--------------------------------------------------------------------------------------|

E---------------------------------------------------------------------------|
B----5-8p5---5--------------------------------------------------------------|
G--7-------7---7-5--4h5h7p5p4---4h5h7p5p4---4h5h7p5p4---4h5h7p5p4-----------|
D-----------------------------7-----------7-----------7-----------7---------|
A---------------------------------------------------------------------------|
E---------------------------------------------------------------------------|

E------------------------------------------------------0--0-----------------|
B---------------------------------------------------2--3--3-----------------|
G--4------------------------------------------------2--0--2-----------------|
D----7-6-5-4----------------------------------------2--0--0-----------------|
A------------7-6-5-3~--/-\------0w-0w-0w-0w-0w-0w---0--0--------------------|
E----------------------------0w------------------------3--------------------|

E-------17-----17-17----17-17-----17-17---------17-20-21----20p17-----------|
G--/20-----20b------20b-------20b-------20b--20----------19-----------------|
B---------------------------------------------------------------------------|
D---------------------------------------------------------------------------|
A---------------------------------------------------------------------------|
E---------------------------------------------------------------------------|

E------17-----17--20brp17----------------------------------------------------------------------------|
B--19b----20b-------------20-17-20brp17----20brp17----20brp17----20brp17----20brp17----20brp17----17-|
G---------------------------------------19---------19---------19---------19---------19---------19----|
D----------------------------------------------------------------------------------------------------|
A----------------------------------------------------------------------------------------------------|
E----------------------------------------------------------------------------------------------------|


E--------------------17-20-------------17-20--17h20p17/14h15p14--------------------------------------|
G--------16-18-20-21----------17h20-----------------------------17p14----14--------------------------|
B--12/18-------------------17-------17--------------------------------17----18b-14-18b-18b-----------|
D----------------------------------------------------------------------------------------------------|
A----------------------------------------------------------------------------------------------------|
E-------------------------------------------------------------------------------------------0DB------|

This is the part where he starts tremolo picking (very fast)

E--12-12-12-12-12-12-12-16-16-16-16-16-16-19-19-19-19-19-19-17-17-17-17-14-14-14-14--|
B------------------------------------------------------------------------------------|
G------------------------------------------------------------------------------------|
D------------------------------------------------------------------------------------|
A------------------------------------------------------------------------------------|
E------------------------------------------------------------------------------------|


E--17-17-17-17-14-14-14-14-16-16-16-16-12-12-12-12-12-12-16-16-16-16-16-16-19-19-19--|
B------------------------------------------------------------------------------------|
G------------------------------------------------------------------------------------|
D------------------------------------------------------------------------------------|
A------------------------------------------------------------------------------------|
E------------------------------------------------------------------------------------|


E--19-19-19-17-17-17-17-14-14-14-14-17-17-17-17-14-14-14-14-16-16-16-16-12-12-12-12--|
B------------------------------------------------------------------------------------|
G--------------------------------------
+7   June 21 2007, 10:21 pm by mohawkkidJohn |
GODDAMNIT EDDIE VAN HALEN WAS A REALLY TALENTED MOTHERFUCKER

=VH=
+2   June 27 2007, 10:07 pm by KurtSlashJimi |
i only looked this up for the awsome tapping part (which i can play) and u did good on that two thumbs up

=VH=
-1   June 27 2007, 10:13 pm by KurtSlashJimi |
GOD DAMN I CANT GET THE VERY END OF THE TAPPING PART AND ITS SOOO SIMPLE
July 2 2007, 04:36 pm by Anderson4292 |
Dude you are a very talented player if you can even pick up on the notes he plays and then transcribe them. As for others, *Hippie* is right, the tab is fairly easy and is good for skills. It's also good to play when you got a few mates over or if you're in music class just to show off and get your minute or two of fame. ***** tab!
July 24 2007, 10:38 pm by JukeB0X Hero |
hahahh!!! maybe ill be able to get this in a decade or two
August 7 2007, 04:42 am by rexalus |
..great tab dude!! this tab f*cks so hard that it looks like that eddie himself made this tablature..ROCK ON!!
August 8 2007, 03:07 am by 5e1v5h0 |
eddie just did this as his warmup but then when they were recording he was told to play it for the album
August 8 2007, 05:24 pm by [travis] |
Awesome job on the tapping part. The official book has it played on the G string at the 21st fret, which is the fake version of it. But your tab is right on. 5 stars.
-1   August 17 2007, 11:43 am by NIrvana_267 |
metallica sucks ass gud tab cockbag
August 18 2007, 12:42 am by mohawkkidJohn |
all you people talking about malmsteen, i personally dont like him much,john petrucci is faster and has better technique then malmsteen and if you hant heard of petrucci then listen to bite of the mosquito.that song is faster and more technical then any van halen song or solo.
August 21 2007, 03:48 pm by plaugeis |
Hey great tab dude!
Just one thing - Eddie plays the beginning of the tapping part like:

9--2--5 x8, 10--2--5 x8, 10--4--7 x6, 12--4--7 x2.

You had the same thing except you had 10-4-7 played eight times. That's just me being picky, but it's an amazing tab! Rock on!


August 24 2007, 02:12 pm by Stentroll |
Great tab! I learned how to tap from this song. Amazing technique :).
August 25 2007, 02:57 am by Lithium717 |
I haven't even played this and I know it's awesome. Looking forward to giving it a shot. Must've taken loads of time, but it's well worth it. Awesome job. Five stars.
August 25 2007, 07:31 pm by Bucketheadroolz |
this is wrongish
August 28 2007, 09:05 pm by joeybones |
i believe that the three greatest guitarists are EVH, Jimi Hendrix, and Zack Wylde and Jimmy Page is the next best. Great tab BTW
+1   September 26 2007, 09:11 pm by keifizel |
Zack wylde? wtf he is super ultra overated, jimmy page is way better and so is angus young, and john frusciante, and slash, and kirk hammett. oh and any way this is an excellent tab 5 stars
September 27 2007, 08:36 pm by Bucketheadroolz |
nobody can play the whole song but its fun to do the tapping part...so here is the out of the tab book eruption
September 27 2007, 08:36 pm by Bucketheadroolz |

ERUPTION BY VAN HALEN =VH=
Eddie and Alex Van Halen and Michael Anthony

Key

B------------full bend
b------------half bend
v------------vibrato
/------------slide up
\------------slide down
(bend)r------bend then release
Ah-----------artificial harmonic
X(/or\)------pick slide
T------------trem bar
*------------harmonics
(#)----------ghost note
^------------quarter bend
&------------1 and a half bend
Tr-----------trill


|----------------------------------------5---------0---------0---------0---------0-
|--------------------------------------5-5-8p5p0-----8p5p0-----8p5p0-----8p5p0-----
|---------2------------5-7brp5h7Bvvvvv-----------8---------8---------8---------8---
|-x/------2--------5-7-------------------------------------------------------------
|-x/------0----7BB-----------------------------------------------------------------
|----14\---------------------------------------------------------------------------


Ah*****
-----------5----------------------------------------------------------------
-8p5p0---5---8p5----5-------------------------------------------------------
-------7---------7b---7brp5---4-5-7-5-7p5p4---4h7p5p4---4h7p5p4-7-4h7p5p4---
----------------------------6---------------7---------7-------------------7-
----------------------------------------------------------------------------
----------------------------------------------------------------------------

T\----------/ \ / \ / \ / \ /
---------------------------------------------------------
---------------------------------------------------------
-4-----------------------------------------------------2-
---7-6-5-4---------------------------------------------2-
-----------7-6-5-3/15---------15p0---------------------0-
----------------------0----------------------------------

*
-------------------------------17-----17-----17-----17------------17-20^-21----19/20-
--------3------3------3/19-20B----20B----20B----20B----20B-----20-----------19-------
-2------0------2-------------------------------------------(0)-----------------------
-2------0------0---------------------------------------------------------------------
-0-----------------------------------------------------------------------------------
--------3----------------------------------------------------------------------------

-17-------------17------17-20Brp17----17--------------------
-----(19)-19&-B----20B-------------20----20Brp17----20Brp17-
-------------------------------------------------19---------
------------------------------------------------------------
------------------------------------------------------------
------------------------------------------------------------


----------------------------------16h17h20----------14-17-20p17-20p17p14h15p14-
-20Brp17----20B-B\-------16h18h20----------14h17h20----------------------------
---------19--------12/18-------------------------------------------------------
-------------------------------------------------------------------------------
-------------------------------------------------------------------------------
-------------------------------------------------------------------------------

T\/\/
---------------------------------------------------12-12-12-16-16-16-16-19-19-19-
-17p14----14--------------------------15B-B-12-----------------------------------
-------17----17Brp14h17------p14---------------15B-------------------------------
---------------------------------x\----------------------------------------------
---------------------------------x\----------------------------------------------
------------------------------------0--------------------------------------------

-19\17-17-17-16-16-16-17-17-17-14-14-14-16-16-16-12-12-12-16-16-16-19-19-19-17-17-17-
-------------------------------------------------------------------------------------
-------------------------------------------------------------------------------------
-------------------------------------------------------------------------------------
-------------------------------------------------------------------------------------
-------------------------------------------------------------------------------------

-16-16-16-17-17-17-14-14-14-16-16-16-12-12-12-14-12\10-10-10\9-9-9-10-9\7-7-7-9-7-
----------------------------------------------------------------------------------
----------------------------------------------------------------------------------
----------------------------------------------------------------------------------
----------------------------------------------------------------------------------
----------------------------------------------------------------------------------

-7\5-5-5-7-5\3-3-3-5-3\1-1-1-1-1-1-1-1-1h3p1p0---------
-----------------------------------------------5p3p1p0-
-------------------------------------------------------
-------------------------------------------------------
--------------------------------
September 27 2007, 08:38 pm by Bucketheadroolz |

T\-----------/
------------------------------------------------------------------------------------
---------------------------------------------x--------------------------------------
-4-2^rp1-------------------------------------x-------------5p0-------5p0-----10---9-
---------------------------------------------x---5h7-7-7-7-----7-7-7-----7/8----8---
---------x/----------------------------------x/7------------------------------------
---------x/19p0---------------------------------------------------------------------


Tr~~~~~~~~~~~~~~~
----------------------------------------------------------------------------------
----------------------------------------------------------------------------------
-7p0-----12----11-9-(11)----------------------------------------------------------
-----/10----10-----------------------0-----------------5p0-------5p0---10p0-9-7p0-
-------------------------------------x-----5h7-7-7-7-7-----7-7-7-----8----8-------
---------------------------------------5/7----------------------------------------

----------------------------------------------------------------
----------------------------------------------------------------
-----12----11-9h11p9h11p9h11p9\7-h9p7h9p7\5h7p5h7p5\4h6p4h6p4h6-
-/10----10------------------------------------------------------
----------------------------------------------------------------
----------------------------------------------------------------

TAPPING!!!
tp h tp h tp h tp h tp h tp h tp h tp h p tp h tp h
------------------------------------------------------------------------------------
------------------------------------------------------------------------------------
-18-6-9--13-6-9--13-6-9--13-6-9--14-6-9--14-6-9--14-6-9--14-6-9-8--14-8-11--14-8-11-
------------------------------------------------------------------------------------
------------------------------------------------------------------------------------
------------------------------------------------------------------------------------


tp h tp h tp h tp h tp h tp h tp h tp h p tp h
-------------------------------------------------------------------------------------
-------------------------------------------------------------------------------------
-16-8-11--16-8-11--16-9-13--16-9-13--17-9-12--17-9-12--19-9-12--19-9-12-11--19-11-14-
-------------------------------------------------------------------------------------
-------------------------------------------------------------------------------------
-------------------------------------------------------------------------------------


tp h tp h tp h tp h tp h tp p tp p tp h tp h
-----------------------------------------------------------------------------------------
-----------------------------------------------------------------------------------------
-9-11-14--21-11-14--21-11-14--21-16-13--21-16-13--21(16)13--21(16)13--21-13-16--21-13-16-
-----------------------------------------------------------------------------------------
-----------------------------------------------------------------------------------------
-----------------------------------------------------------------------------------------


tp tp h tp h tp h tp h tp h tp h tp h
-------------------------------------------------------------------------------------
-------------------------------------------------------------------------------------
-21-16--21-16-19--21-15-18--21-15-18--21-14-17--21-14-17--21-16-13--21-13-16/19------
-------------------------------------------------------------------------------------
-------------------------------------------------------------------------------------
-------------------------------------------------------------------------------------


tp h tp h tp h tp h tp h tp h tp h tp h
-------------------------------------------------------------------------------------
-------------------------------------------------------------------------------------
-21-16-19--21-16-19--21-15-18--21-15-18--21-14-17--21-14-17--21-13-16--21-13-16------
-------------------------------------------------------------------------------------
-------------------------------------------------------------------------------------
-------------------------------------------------------------------------------------


tp h tp h tp h tp h tp h tp h tp h tp h h
-------------------------------------------------------------------------------------
-------------------------------------------------------------------------------------
-19-14-17--19-14-17--19-13-16--19-13-16--19-12-15--19-12-15--19-11-14--19-11-14-17---
-------------------------------------------------------------------------------------
-------------------------------------------------------------------------------------
-----------------------------------
September 27 2007, 08:39 pm by Bucketheadroolz |
ok this isnt going as planned so........oh well t p and h arnt positioned correctly but the tabs are right...
+3   September 27 2007, 08:39 pm by Bucketheadroolz |
tp h tp h tp h tp h tp h tp h tp h tp h tp h
---------------------------------------------------------------------------------------
---------------------------------------------------------------------------------------
-18-12-15--17-12-15--17-11-14--17-11-14--17-10-13--17-10-13--17-9-12--17-9-12--16-8-11-
---------------------------------------------------------------------------------------
---------------------------------------------------------------------------------------
---------------------------------------------------------------------------------------


tp h tp h tp h tp h tp h tp h tp h tp
-----------------------------------------------------------------------------------
-----------------------------------------------------------------------------------
-16-8-11--16-9-12--16-9-12--16-8-11--16-8-11--16-9-12--16-8-11--16-9\--------------
-----------------------------------------------------------------------------------
-----------------------------------------------------------------------------------
----------------------------------------------------------------------h4/18\-/19p0-


* * T\--------------------------/
------------------------------------
------------------------------------
------------------------------------
------------------------------------
------------------------------------
-12-12------------------------------

___________________ ____________ ______ ___________________
\_______________ \ \_____ / / ___/ / _______________/
_______________\ \ / / / / / /_______________
\________________ \ / / / / / ________________/
________________\ \ / / / / / /________________
\_________________ \ / / / /_____/ _________________/
\ \/ / / _______ /
\ / / / / /
\ / / / / /
\___/ /___/ /___/

+1   September 27 2007, 08:40 pm by Bucketheadroolz |
no!!!!!!!!!!!!!! my vh symbol...its ruined it looked better in microsoft word but ill live
October 14 2007, 09:33 pm by Guitarmaster94 |
NICE MUTHA F-EN TAB
-2   October 14 2007, 09:35 pm by Guitarmaster94 |
but .... i think the first tapping part goes like this:

|----------------------|
|t8p1h4----------------|
|----------------------|
|----------------------|x8
|----------------------|
|----------------------|

There

Nice tab tho
October 21 2007, 04:51 pm by saipanfez |
The tapping part is pretty easy, you just have to nail the technique behind it and keep up the speed...good job.
October 23 2007, 12:58 am by Markus93 |
HOW THE FUCK DID YOU FIGURE THAT OUT???!!! IT HELPED ALOT I CAN PLAY THE WHOLE THING. NOT AS FAST THO. 5 STARS.
November 4 2007, 09:49 pm by laxkid2 |
yeah, how did you tab that? this song is the best guitar solo ever hands down. THSI SONG ROCKS!! \m/ (>.
November 20 2007, 10:55 pm by ilovemySG |
i can play eruption, its hard, but i do it onstage between songs when the other guitarist is tuning nd stuff.
December 21 2007, 03:17 pm by americanidiot71 |
wow. great freaking tab! the only things i can say are ive seen the -8p5p0- part played a little differently and at the
very end after the last 0 he hammeres on the harmonic on the 12th fret on the low E string and then whammys it.
otherwise- i'd say its nearly perfect!
December 24 2007, 12:51 am by hendrexrules |
yes most of it is correct, the tapping is correct too *and yes i can play it =p*
December 24 2007, 12:15 pm by Cthulhu_Calls |
sounds Fuckin great played slowly now ive just gotta try n learn it to speed =p great tab 5*
December 30 2007, 01:30 am by nickguitar |
wow man this makes eruption look easy seriously ive been on this page for literally about 10 min. and i alredy know half
of it HAH!
December 30 2007, 02:14 pm by pped6 |
God DAMN! lots of numbers and shit......................
December 30 2007, 02:18 pm by pped6 |
oh yea whats up with the slides when no notes are being played on the string? and nobody actually explained what a dive
bomb is. is it the deep whammy that he does after the end of each part?
-1   January 6 2008, 12:37 am by orange_juice |
I CANT DO IT
January 21 2008, 04:56 am by Guitar_man191 |
wow this is pretty accurate the tapping bit is so easy but its challenging
January 27 2008, 04:35 pm by BCrichwarlockz1 |
this song is awsome, but i dont get the tapping... no matter how hard i try, i can do it. anyone have some advise?
January 29 2008, 08:13 pm by conman5895 |
i hate it when people play this song in a guitar contest then pissed when they dont win well what do exept alot people know this song and you didnt f'n write the song evh did

also saw them last night live with david lee roth the best concert ever seen eddie changed up eruption so like a 10 min. solo instead of 1 min. one
February 1 2008, 06:34 pm by gunsnroses#1 |
how do u do the pick squeel thing in the begining
-1   March 2 2008, 07:25 pm by -Rockgod- |
the tapping part is actually on the G string:

|----13p9p6----| and so on
March 13 2008, 08:45 pm by Markus93 |
can someone please post a better "when its love" tab!!!

and the tapping isen't on the g string.
March 15 2008, 04:16 pm by TheSoother |
[12-11-2006 - 11:19 pm] by randylivs4ever:|
Dewey1040, well that may be true but malmsteen is still much better. like arpeggios and other shit like that is hard to make into a 6:00min song. i wanna see you do that!!!


dude, although im not a major EVH fan, Malmsteen only plays fast sweeps and arpeggios. thats it. have u seen the video where he tries to play blues?! it ends up being nothin but arpeggios, he cant play with technique other than sweeps.
March 15 2008, 04:18 pm by TheSoother |
btw this is by far the best tab here. u really know ur shit if u can tab this song out where it actually sounds good. 5* love it
March 24 2008, 08:50 pm by guitargod43 |
Fuckin Amazung Most Tabs 4 This Song R Shit But Not This One Some Minor Errors But Not Many
April 6 2008, 08:37 pm by gareno |
it ain't perfect but its better than i couldve ever done
April 20 2008, 10:52 pm by Markus93 |
Someone post Romeo Delight Power or text PLZ!!!!
May 8 2008, 08:37 pm by jacobrocker131 |
ive been playing not more than 6 months, and i can get this pretty good. i practice it everyday, and in a month i plan to perfect it. this solo/song=godly.
May 12 2008, 01:06 pm by doompers7491 |
hahaha ive been playing for a littl eover a year and this is so hard!!!!
May 16 2008, 06:08 pm by UnAmazing365 |
this was like 99% correct (like everyone stated you missed just one dive bomb thats all. But again, plain amazing! i could never tab this out. My band for battle of the bands, we are doing 2 Van Halen covers and we are opening with Eruption as soon as the curtains open just to start it out. So thanks, this helped me a lot.
-1   May 18 2008, 03:08 pm by Godislife515 |
there is poop in my toilet
+2   May 24 2008, 11:20 am by yuck225 |
the tapping part was 100% correct
May 31 2008, 10:35 am by gsnizzle |
awesome tab. very accurate. nice job, man
June 1 2008, 05:55 pm by WARNINGnimrod12 |
wow!!!!

Don't worry about the ass holes who think it's bad. They're just jealous of your awesomeness!
June 7 2008, 12:38 pm by fretman5000 |
How the hell did you tab this? This is an awesome tab!
June 7 2008, 04:12 pm by xxx_lionel_xxx |
what is ''W''?
June 11 2008, 09:03 pm by bassbrotha |
lol, will anyone read this coment, its so far down the page :), great tab too
+1   June 21 2008, 08:59 am by isabiggles |
this is my daily reminder of how much i suck at guitar.
+3   June 27 2008, 08:04 pm by thepoopkid3 |
okay
sooo any people dont know what they are talking about and it makes me mad
1. eddie said he made only one mistake on the album version of eruption

2. eddie didnt 'invent' tapping
but making it famous
he got the idea from jimmy page from the ending of heartbreaker (live i guess) where jimmy lifts the guitar above his head and does and bunch of pulls and hammers with his left hand
eddie is a genius so he figured he could make his right hand the nut and swithing the placement of his hand (youtube it, not that hard to find)
for a list of people who tapped before him
go to wikipedia and type in something like 'first guitar tapping'

3. he plays the same eruption almost every performance
but he also plays countless other songs intwined with it
ever heard of 316, spanish fly, cathedral etc.


4. the tapping is slightly wrong because eddie uses two different techniques
in the beggening to the tapping part to almost the end he is doing something like this

+ P H +
9/5/2/5/9/.....etc

it looks wrong, but he does this very fast
then towards the end of the tapping
where it sounds "faster"
it isint really faster but a different technique
the 'normal' technique

12p5h8-12p4h7-12p5h8-12p4h7-12p5h8-12p4h7-12p5h8-12p4h7-12p5

there is a video on youtube by the van halen tribute guitarist you discribes this method better than i did
but you get the point

5. this is a good tab, not the best but very, very good

6. eddie is really fast, really f*cking fast
during the 12-12-12-16-16-16-19-19-19-17-17-17-16-16-16...etc part
he discribes his picking as hummingbird picking
he puts the pick between his thumb and middle finger, slightly bends his pinky back and goes crazy, faster than you
he could diffenetly be in the top ten fastest guitarist if he went his fastest
he doesnt go super fast because not all the time is sounds good
eddie doesnt sweep, Malmsteen just sweeps, no other technique except sweeping, too much sweeping = bad and annoying
eddie has class and style

do your research before you try to say something you dont know
July 14 2008, 09:08 pm by Curtis 14 |
great tab, gave it 5 star!!!:)
July 24 2008, 02:08 pm by lefthandguitar |
awesome tab i cannot play it personnaly but i am working on it and all you people who say "You can't play this anywhere as good as EVH." DUH HE wrote it and has been playing it for a long time.

and those that say "You can's play this stop lying you ______."


How do you know you have no right to tell other people they can't play the song when you have never seen them play before for all oyu know they can play it better than you if you can play it.
August 8 2008, 02:05 am by rock on the E's |
This isn't a song. its Eddies warm up thing.

I found somethin online about it accidently get recorded but they kept it on their cd.
August 12 2008, 01:09 am by jonashater4241 |
seriously eddie is the best ever if you can tap across all six stings in thirty second notes you are hella good eddie is the best hands down
September 30 2008, 08:29 pm by Stride278 |
you know whats awesome man!! i have a guitar lengend magazine and your version makes more sense then the magazine! \m/, seriously, you play the version from the magazine and it sound NOTHING like it. you rock man --VH--
October 4 2008, 11:33 pm by CurtisLowe23 |
freakin awsome. i been playin for a while and i still dont know what the hell tapping is, im just teachim myself so im doin good on this song exept the tapping part. dang u brain THINK! FAST! TAPPING! FREAKIN AWSOME MUSIC!
November 9 2008, 06:56 am by mfkr |
/\
lol the only part i want to learn is the tapping
great tab btw
November 11 2008, 05:42 pm by dvr555 |
Awesome 5 stars
November 13 2008, 12:15 pm by randyaintdead82 |
just a little avice if you wanna sound like really awesome at the end with the tapping use wa,h like slowley push it down, then up, repeat
November 16 2008, 11:29 pm by marcelaguiar |
"EVH is god" is god
December 5 2008, 08:33 pm by AceDelta101 |
when lpaying the tapping part the lower E string starts to ring causing unwanted noise nd it wont sound the way its supposed to. ny1 kno how to fix this problem? nice tab btw
-2   December 17 2008, 08:31 pm by JamesxHetfield |
Note the tuning is 1/4 of a step down for that whole album
December 24 2008, 02:13 pm by >:) !! |
there is no god. there is only eddie van halen.
January 3 2009, 07:26 am by chainreaction |
i really thank you evh ... for doin this tab hope you can do other tabs that has cool solos

thanks again man \m/
January 4 2009, 12:22 pm by Kirdid |
Thanks for this Tab, 5 stars from me :)
January 31 2009, 05:51 am by Sakuboi |
Amazing tab! I´ve been search this tab everywhere and this is first tab which is right:)
-2   February 11 2009, 01:16 pm by Thor_666 |
nice work, nice tab really, but it´s not right at all but ****ing good!!^^
+1   February 21 2009, 03:09 pm by WyvernOmega |
Genuinely awesome, man. Thanks so much. 5 Stars.
February 23 2009, 04:24 pm by gibsonsg145 |
good tab. can sum1 help when i finger tap on other strings apart from the high e string i always hit the other strings and it ent clea do i have to paml mute or summit
-3   February 24 2009, 06:48 am by shaveapoodle |
i did this for a performance at school and i was pretty tired and out of stamina at the end...
i think im un fit.
thats my 2 cents
good tab
+1   February 26 2009, 12:43 pm by norair |
nice
March 22 2009, 01:30 pm by 2013btuttle1 |
mind decay, it doesnt take a lot of talent. i can do it and ive only been playing for about a half year
March 27 2009, 12:31 pm by Black Rat 1214 |
Hehe, i learned it through this (thanks by the way, a very good tab) and busted it out at a dying open mic night (basically if you can play, get up and play some stuff). But yeah the night was dying and everyone was looking bored so i got up and said something like "Er... ok this is a little dead..." then busted this out and some pints were dropped.

And i sooooo pulled afterwards :D

So yeah, anyone need some inspiration to learn this song? imagine a pub with jaws on the floor and some absolutely fit bird that you fancied for ages comes up to you... *thumbs*
April 10 2009, 02:44 pm by Donovan420 |
hey man the tab is off the hook,but looks a little too hard 4 me
+1   May 15 2009, 11:16 am by Ro734 |
OMG U MAKE IT EASY
July 14 2009, 09:41 am by PVLover5509 |
For anyone thinking that this tab is not accurate or anyone who's having difficulty to learn it thru this tab,i personally prefer to learn it through video tutorials and i found a guy on youtube who has make a 5 part series on how to play the EXACT song.Have a look here and sorry for spamming lol:

http://www.youtube.com/watch?v=uerlqcAYMSo

I hope you enjoy this and good luck ;)
-2   July 24 2009, 10:10 am by Doombabie |
HAL LEONARD's 25 Great Guitar Solos book has an extremely accurate version of the song. Of course no one can play it exactly like Eddie did. I will try to post it but I don't know the admins sound picky. Either way this is a pretty good tab.
-2   September 4 2009, 09:31 am by Shinrizzle |
I'll go ahead and tell u PVLover5509 is right, i wasted 3 days learning this tab and then I watched the guy on youtube and his version is right. This is completely wrong except for the tapping. Just listen to the song and try and play this to it..its wrong.
September 28 2009, 10:06 pm by Nollaf Enahs |
man, not as hard as it thought it would be... BUT STILL REALLY HARD!!!!!!!!!!!!!
December 15 2009, 09:55 pm by natedawggg123 |
slow down solos riffs and songs with this!!!

http://00d2blgrsybpkenej9ln0cdv0z.hop.clickbank.net/?tid=4W3LRXKS
January 1 2010, 05:01 pm by thtpunkrockerki |
I may be wrong but I always use a wah pedal when playing the tapping parts.
March 1 2010, 03:43 pm by rockandmetalfan |
AWSOME TAB BUT HARD!!!
March 23 2010, 06:01 pm by Sam Wotrey |
I can play this on medium lololololololololololololololololololololololololololololol.
By the way, who's EVH?
+1   March 29 2010, 10:48 pm by Cannibal Koala |
:O Who's EVH? Why, He's Eddie Van Halen, one the most incredible guitarists who was ever born. :D

Seems like a good tab, my friend plays it, and learned it off this tab. Prreeeetty Accurate.
April 23 2010, 11:48 pm by Cannibal Koala |
I finally learned it, it's a really good tab.
June 4 2010, 04:07 pm by Guitarplayer806 |
people who can,do
who talks ,cannot
June 16 2010, 04:24 pm by Bwaybombshell |
can't wait to try it! thanks!
-2   July 18 2010, 11:14 pm by nathanielaugust |
i've been playing for 6 days and i can play this at top speed of 200 bpms perfectly. i am a guitar god
August 13 2010, 08:24 pm by Lamb-Megallica |
This is just me, but at the very end of the song I play a 12 instead a 0 on the E string (still the same note, just an octave higher), and then slide down, it sounds like the song to me.
August 19 2010, 08:14 pm by MagicsDevil |
I rated this tab one star because I do not have to skill to play it full speed because I am a cock sucking troll.
September 25 2011, 09:41 pm by ZOSO <(") |
just learned how to play it, sweet baby jesus........i need new pants.
December 3 2011, 03:17 pm by HuntErrrr11 |
Awesome job! but I found a little mistake..
   +        +        +       +       +       +       +       +      +       +
E--------------------------------------------------------------------------------------|
B--15p10h13-15p10h13-15p9h12-15p9h12-15p8h11-15p8h11-15p7h10-15p710-13p8h11-13p8h11----|
G--------------------------------------------------------------------------------------|
D--------------------------------------------------------------------------------------|
A--------------------------------------------------------------------------------------|
E--------------------------------------------------------------------------------------|

See? it says "-15p710-" but other than that, unbelievable job! :D
+1   December 8 2011, 04:34 pm by greenday1101 |
i quit, this is hard as ****
March 3 2012, 05:55 am by Fredmac12 |
December 3 2011, 03:17 pm by HuntErrrr11 |
Awesome job! but I found a little mistake..

+ + + + + + + + + +
E--------------------------------------------------------------------------------------|
B--15p10h13-15p10h13-15p9h12-15p9h12-15p8h11-15p8h11-15p7h10-15p710-13p8h11-13p8h11----|
G--------------------------------------------------------------------------------------|
D--------------------------------------------------------------------------------------|
A--------------------------------------------------------------------------------------|
E--------------------------------------------------------------------------------------|

See? it says "-15p710-" but other than that, unbelievable job! :D

Realistically, there's no need to correct that, it's just a typo, no one is not going to realise what it means!
Great tab 5* - even if I haven't quite managed to play it all yet :P
July 25 2012, 09:51 pm by rasta_mon |
I hope I can play this one day.
March 11 2013, 12:08 am by christianonbass |
Is your action set too low (are the strings too close to the neck)? That will cause a buzzing sound especially if you tuned your guitar down for a Van Halen song , or many songs that are tuned lower. If what I said sounds confusing, you can go on you tube to see what I am talking about but I do not suggest you adjust your neck if you haven't been taught how. Take it to a guitar shop. If you look on You Tube just type in "Adjusting action on guitar". You will see Brother.
May 2 2013, 04:15 pm by needadonut |
Came for the tap part........... Leaving and know teh tap part. Thank you, sir for this wonderful tab.
July 7 2013, 01:50 pm by mikefire |
way to hard for me
January 15 2014, 08:19 am by ndewalt12345678 |
Tapping, Tremolo Picks, you got it all dude! Amazing tab. I'm not EVH, but I can play it, thanks to your great tab. Best on the site. 5* ROCK ON!!
January 23 2014, 10:46 am by LegendofCaleb |
Great tab! One ting, though. At the end I believe that you play the sixth string, then hammer on to a 12th fret harmonic and then divebomb. Anyway, that's what I hear when I listen to the song.
Please select
Post your    Comment OR Correction :

NOTE: If you want to post a tab,
please use [tab] [/tab] tag to do this.
© 2014 Ultimate-Guitar.com or its affiliates. All rights reserved     About | Help | Site Map | Link To Us | TOS | Privacy Policy | Advertise | Contact