by Hinder tabs | tabbed by Unregistered
1 2 3 4 5
103 votes
print
View: All Comments Corrections Best Voted Corrections
August 20 2006, 10:52 pm by Metallix666 |
AWESOME !!! nice job on the tab I thank You!!!

Metallix
August 22 2006, 05:51 pm by NOAHB270 |
thank god for a good tab!!
+4   September 2 2006, 07:56 pm by chunk jr. |
the tab ist mostly correct ecxept the into has to many notes after the chords are strummed
+1   September 12 2006, 07:58 am by trox |
dude, tab's sweet, nice job
September 13 2006, 08:51 am by guitarLevoNgear |
hello?
September 16 2006, 09:59 am by jonfocht |
enis-pay
+3   September 16 2006, 10:00 am by jonfocht |
hinder is amazing! :)
+1   September 26 2006, 07:46 pm by justin43091 |
this is a sick tab
chunk jr is right tho
+2   September 26 2006, 07:51 pm by justin43091 |
i use the intro part from ver3, and the rest from here
+1   October 6 2006, 06:34 pm by SRVistheKING |
great tab...glad someone finally put in the lead for this song....but the pre verse for the second verse is a bit off...heres what it is

b 10
g 11-9-11-9-11-12-11-9-11-9-11-12-11-9--11-9
+1   October 6 2006, 06:37 pm by SRVistheKING |
^ sorry typing messed up this is the correct tab

b 10
g 11-9-11-9-11-12-11-9-11-9-11-12-11-9--11-9
+1   October 6 2006, 06:38 pm by SRVistheKING |
^ ha ok so that 10 is sposed to come after the second to last 9... wont let me put it there
-1   October 8 2006, 10:26 am by dostacysmom69 |
thanks for doing second guitar

just for that, 5 stars
+3   October 8 2006, 09:37 pm by blur819 |
great tab... 4 stars (not 5) because the song is played one full step down tuning. But, just droping the e2d makes this very user friendly. THX, good work. I offered up a tab in full step down tuning, let me know what you thought of it. PEACE
+2   October 21 2006, 02:24 pm by I-Z |
hey this tab is awesome dude
the only thing that should be changed is the 2nd pre chorus where it goes "my girls in the next room"
you put like 10 14 10 14 10 12 10 12 10 14 10 14 10 15 10 15
which is right but those should be Harmonics and thats how they play it so this is how the harmonics should go




these are all harmonic notes
E------12-12-------------------12-12----------------------------|
B-7-7----------7-7--------7-7----------7-7----------------------|
G--7-7---7--7---7-7--5-5---7-7---7--7---7-7--5-5----------------|
D---------------------5-5---------------------5-5---------------|
A---------------------------------------------------------------|
D---------------------------------------------------------------|

i'm almost positive that is right. again those are all harmonic notes
+1   November 3 2006, 10:54 pm by KeViNp |
^That sounds wrong^
It sounds like it should go
|14-10-14-10-12-9-12-9-14-10-14-10-15-10-15-10|

(plus: why was this post take down? I swear I posted here)
+1   December 9 2006, 08:26 pm by j_schneider |
hmmm it sounds alright but i think they play it with every string down a whole step... it looks a lot easier but idk how to play it
you can watch the video on youtube.com
+1   December 14 2006, 09:48 pm by chicco-22 |
gr8888 tabbb
+1   January 14 2007, 02:02 am by reaper846 |
i have a question im having trouble with the Bm chord at the begining my pinky gets in the way do you have any suggestions? i can play the chord i just cant do the 4 3 4 4 part
+1   January 18 2007, 02:06 pm by inethacker |
holy shit finally a lead part...nice job
+1   January 23 2007, 08:23 am by greengoblin2006 |
reaper maybe you shoud practise finger picking barre chords first maybe start with something simpler like hotel califorina cos that has four different parts u can play i don't know how youre finger cab get in the way of the b minor chors unless you are just learning then well keep practising
+1   January 23 2007, 08:23 am by greengoblin2006 |
reaper maybe you shoud practise finger picking barre chords first maybe start with something simpler like hotel califorina cos that has four different parts u can play i don't know how youre finger cab get in the way of the b minor chors unless you are just learning then well keep practising 5 stars good work
+1   January 24 2007, 07:14 pm by jwhalen |
in the solo where u have 7h8-7--5-4, i was listenin to the song and it sounds like theres more to that part, does this sound better to anyone else: 8h10p8-7h8p7-5h7p5-4h5p4
+1   February 15 2007, 10:39 pm by reaper846 |
greengoblin2006 : im a total noob at this =/. but i dont need help anymore i found a vid on you tube that cleared things up
+2   March 9 2007, 06:04 am by smithy_hendrix |
Thanx 4 trying the solo. At least sum1 has.
+1   July 12 2007, 05:32 pm by XAVIERSMITH |
did someone seriously go from 5 stars to 4 just because of the tuning? dude, its all relative, long as its drop doesnt matter if its a step down or not doesnt make a difference how you play it, play whatever tuning you want. people care way too much about tuning. unless the only time you ever play is alone in your room along with the cd like a loser, who cares?
+1   July 15 2007, 07:12 pm by Trey3 |
i like the verses better in ver. 3 but u hav the solo and the second guitar so 5*
+2   August 13 2007, 08:58 am by doom25 |
this could also be played in standard tuning w/c is way easier than dropped d..and your tab sounds different from d original song!!
+2   August 15 2007, 03:48 pm by Jose Montoya |
..........?wtf....im stuck on the solo...it doesnt make sense....ummmhelp plz?
+6   August 16 2007, 12:42 am by musicidot |
hey guys, this song is not drop D, is Tune down 1 step and thats how Hinder did, and it makes this tab more easier to play too!!!
so the verse goes like this
D---------0---------------0------|------0-----------------0----------|
A-----------0---------------0----|--------0-----------------0--------|
F---4--4--------4--4/6--6-----6-0|-2--2-------2--0--1--1--------1--x-|
C---4--4--------4--4/6--6-----6-0|-2--2-------2--0--2--2--------2--x-|
G---2--2--------2--2/4--4-----4-0|-0--0-------0--0--2--2--------2--x-|
D--------------------------------|------------------0--0--------0--x-|
+2   August 16 2007, 12:43 am by musicidot |
check their lives out , and you will understand what i'm talking about
+2   September 22 2007, 04:51 pm by serenade_edy |
its drop c with d on low E
+3   October 21 2007, 08:34 am by tom183 |
^AKA tuned down a full step...lol
+2   October 25 2007, 04:29 pm by belez020 |
here's part of the solo that is missing: drop D

it is played right after the partially muted notes on the 12th fret A string and 14th fret G string

E----------------------------- -----------------------------------
B----------------------------- -----------------------------------
G-5--------------------------- --------5/7--------5/7--------5/7--
D-----7h8-7---5h7-5--5h7-4----then-4-5--7-----4-5--7-----4-5--7------
A----------------------------- -----------------------------------
D----------------------------- -----------------------------------
+2   November 2 2007, 01:20 am by nab guitarist |
Sweet tab
-1   November 6 2007, 03:18 pm by rich105 |
i don't think it's right at all
+2   February 17 2008, 03:41 pm by johndrox |
rich105 u suk it is right,

nice tab by the way
+3   February 21 2008, 05:42 am by xavier-j |
excellent tab, thanx very much! helped in school assess. ^^
+2   March 26 2008, 12:03 am by Kaz3-6-0 |
did you know that some idiot posted your tab on the guitarworld website?
+4   June 18 2008, 07:18 pm by sonnyboy_95 |
to me the verse should sound like

E----------------------------------
B----3-------3-----------------3---
G-2---2-2-4---4-4-----7-------2---2
D-2-2--2--4-4--4---7---7--5-0----0-
A-0-------2--------5-5---5--0------
D------------------5--------0------ then repeat until chorus...
+2   June 18 2008, 07:20 pm by sonnyboy_95 |
sorry it should be
----7-----
7----7---7
5-5----5--
5---------
+2   June 23 2008, 04:25 pm by rocknrolldude43 |
great tab man. i just came for the solo, but i'm glad to see that you tabbed the entire lead part as well. awesome
+2   July 25 2008, 12:14 pm by littlerocker141 |
Awsome tab
+1   September 11 2008, 05:33 pm by jf9ooh |
the intros wrong dumb ****s
+2   September 19 2008, 11:16 pm by fluffed |
Pretty decent tab, helped me get the general idea of the song. I think that the verse should be like this though:
E------------------------------------
B----3--------3------------------3---
G-2---2-2--4---4-4------7---------2--
D-2-2--2---4-4--4---7----7---0(0)--0-
A-0--------2--------5-5---5--0-------
D-------------------5--------0-0-----
I dunno, just sounds a bit better to me, i think theres too many notes in your version.
+2   November 28 2008, 07:39 pm by lazman30 |
anyone know what amp settings to use for this song? i got my amp just a week a go and i dont know how to get that tone.
+1   November 29 2008, 01:02 am by Carsonhappyface |
sounds great just im not gonna attempt to play it aha nice job thoguh cinq stars
March 21 2009, 06:15 am by wakeke |
sounds good to me
June 3 2009, 01:53 pm by Deathro |
just because u did this correctly 5 stars
+1   June 3 2009, 05:23 pm by BloodMoon666 |
@ fluffed yes that sounds better

- - - - -

@ lazman30 just use acoustic and play with delay and echo effects?
+1   July 6 2009, 04:40 pm by Classicrock!! |
I thought this was tuned down 1/2 step...Eb Ab Db Gb Bb Eb?
+1   July 6 2009, 05:00 pm by Classicrock!! |
Intro is wrong It Should be like this: Tuning Eb Ab Db Gb Bb Eb
Dont pick/strum the notes in brackets hense ghost note..
|--------0-----------0------------0-----------0----
|---------0-----------0-------------0-----------0--
|-------------------------(2)-2-2-----2/--1-1------
|---4-4-----4/4--6-6----6\(2)-2-2-----2/--2-2------
|---2-2-----2/6--4-4----4\(0)-0-0-----0/--3-3------
|--------------------------------------------------
+2   July 6 2009, 05:01 pm by Classicrock!! |
Intro is wrong It Should be like this: Tuning Eb Ab Db Gb Bb Eb
Dont pick/strum the notes in brackets hense ghost note..
|--------0-----------0------------0-----------0----
|---------0-----------0-------------0-----------0--
|-------------------------(2)-2-2-----2/--1-1------
|---4-4-----4/4--6-6----6\(2)-2-2-----2/--2-2------
|---2-2-----2/6--4-4----4\(0)-0-0-----0/--3-3------
|--------------------------------------------------
+1   July 6 2009, 05:05 pm by Classicrock!! |
Just to Back up my intro up there ^^ go on youtube and look up Lips Of An Angel and watch the VH1 live..he plays exactly that
+1   June 11 2010, 09:54 am by whiteandblack |
This is what the verse sound like to me:

e|--------------------------------------------|
B|----------------3---------------------3-----|
G|-2---3---2--4-4---4-4------7--------2---2---|
D|-2-2---2-2--4-------4--7-7---7-7--0-------0-|
A|-0-------0--2-------2--5-------7--0-------0-|
E|-----------------------5-------5--0-------0-|

Anyone know where I'm coming from???
+1   June 11 2010, 09:58 am by whiteandblack |
@Classicrock!
I watched a live video and that's how he played the intro. He speaks the truth! XD
+1   September 4 2010, 05:07 pm by xsoundsofsoulx |
Im new to this site so Im not sure how to tab it out for you.... But I tried and tried to get this solo to work but it doesnt.... I ended up having to figure it all out for my self... great work on the rest though.
+1   March 21 2011, 11:15 am by nixhex_311 |
hey whats up ty this is my account - nick
-2   October 8 2013, 10:34 pm by FireTear95-12 |
dude, please try to spell simple words like "except" and "intro" correctly, and "is" DOES NOT HAVE A "T" AT THE END OF IT!!!!
October 8 2013, 11:22 pm by FireTear95-12 |
Come on, I know that we are all musicians, but will the spelling and grammar ever improve on here?! Everyone knows that the words "more" and "easier" do not go together in the manner that you just used them in! Y'all are killing me on here!
November 17 2013, 06:11 am by kimberlillyw2 |
I agree 100% with you, I play it the same way tuned 1 step down. It's a lot easier and sounds just like Hinder plays it. Also everywhere I have looked Hinder has played it this way, just look at all their videos for confirmation.
Please select
Post your    Comment OR Correction :

NOTE: If you want to post a tab,
please use [tab] [/tab] tag to do this.
© 2014 Ultimate-Guitar.com or its affiliates. All rights reserved     About | Help | Site Map | Link To Us | TOS | Privacy Policy | Advertise | Contact