by A Day To Remember tabs | tabbed by xApollox
1 2 3 4 5
27 votes
print
View: All Comments Corrections Best Voted Corrections
+1   February 23 2007, 11:04 am by A7XinNM |
finally we have some ADTR tabs up
-5   April 1 2007, 12:02 pm by punkextremest |
This is bad ill tab the correct version.
-5   October 21 2008, 05:33 pm by hippiemetalguy |
totally wrong sry dude not even a gud try
+1   August 4 2009, 09:15 pm by the_extreme |
This is THE only correct version! i dont know what you guys are talking about, Just change the Bar 7 chord in the intro and bridge to an
d|----
a|----
f|--2---
c|--2---
g|--0---
c|-----
It's a lot easier, and even watch the music video, the guitar does it that way.
+1   October 5 2009, 02:24 pm by Creative-Noise |
I know most people will throw a fit when they read this cuz "it's not the way he does it on the video", but why not just tune to regular drop D? You don't actually need any notes lower than that and it saves you to trouble of down tuning so much.
October 11 2009, 12:07 am by Creative-Noise |
By the way, can't anyone get the lead parts in the pre-chorus?
October 28 2009, 05:54 pm by shadow assasin |
i think there should be a slight change in the pre-verse
Pre-Verse:
D|--------------------|
A|--------------------|
F|--------------------|
C|--------------------|
G|0--0023-------23-3--|
C|--------2--22----3--|

just change the 0 to a 2
+1   March 20 2010, 08:03 pm by g_tab_man |
whenever both guitars enter in the intro, and guitar 2 plays that higher note, here's how I play it.

D)------------------------------------------
A)-------666666666666------666666666655-----
F)-------555555555555------555555555555-----
C)-7-7----------------7-7---------------7-3-
G)-7-7----------------7-7---------------7-3-
C)-7-7----------------7-7---------------7-3-

that's putting both parts together. the A line is guitar 2, the F line is guitar 1.
April 15 2010, 06:18 pm by Sam Rulez D00d |
|8------------------------
|--8----------------------
|---------------9h9p9-----
|----10---10h12-------12--
|-------------------------
|-------------------------
July 13 2010, 01:41 pm by paramoredecoy |
is there any tabbed in standard tunning??
September 20 2010, 11:50 am by 7dayztofreedom |
Sam Rulez D00d what part is that?
+1   February 28 2014, 06:42 pm by codyhugh |
sweet the best band ever
July 25 2014, 06:02 am by fluffysnowcats |
i saw them at warped it was epic
August 27 2014, 05:20 pm by Nocturnal1997 |
intro when both guitar plays.

D)------------------------------------------|
A)-------555555555555------555553333333-----|
F)-------555555555555------555555555555-----|
C)-7-7----------------7-7---------------7-3-|
G)-7-7----------------7-7---------------7-3-|
C)-7-7----------------7-7---------------7-3-|

D)------------------------------------------|
A)-------555553333333-----------------------|
F)-------555555555555------555555555555-----|
C)-7-7----------------7-7---------------7-3-|
G)-7-7----------------7-7---------------7-3-|
C)-7-7----------------7-7---------------7-3-|

Other then that, great job.
Please select
Post your    Comment OR Correction :

NOTE: If you want to post a tab,
please use [tab] [/tab] tag to do this.
© 2014 Ultimate-Guitar.com or its affiliates. All rights reserved     About | Help | Site Map | Link To Us | TOS | Privacy Policy | Advertise | Contact