by A Day To Remember tabs | tabbed by Ace2705
1 2 3 4 5
43 votes
print
View: All Comments Corrections Best Voted Corrections
November 7 2007, 12:42 am by Ace2705 |
someone comment or rate jeeeez lol
+4   November 17 2007, 08:31 pm by boXcaR 244 |
its pretty good. only a few things that don't sound spot on.
+3   June 10 2008, 02:20 pm by DanceKelciDance |
the intro sounded perfect
+1   July 29 2008, 05:16 pm by klacour |
intro sounds good, not sure about a few parts in the rest of the song.. but overall its a good tab
+1   September 10 2008, 12:09 am by jslatham |
the intro is probably instead of 5's and 3's and 2's on the e it is probably 14's 12's and 11's on the g
+1   March 1 2009, 04:34 am by williewuboy |
i think in the verses for guitar 2 for the part where its like
0-2-3-5
3-3-3-3
2-2-2-2
it should be
0-2h3s5
3-3-3-3
2-2-2-2

and like if you can't do the slide 5-3-2 thing then just do

sounds pretty much the same really.
so yeah thats what i think atleast
March 3 2009, 06:26 pm by Ace2705 |
oh yeah guys i just went back and looked at this finally the verse the second time through is really played on the D string making it

x00230
x02230
x04230
3x0230
August 25 2009, 04:39 am by dot 2 dot |
some of it was wrong
August 27 2009, 08:10 am by atreyu94 |
Isnt there a capo in the song???
It sounds like it
-1   March 15 2010, 09:09 pm by BobbyBrewtality |
Intro

e|-----5-----5------------------------------------------|
B|-----------------8-----7-----7------------------------|
G|-7*----7-----7-----7-----7-----7---7------------------|
D|---0-----0-----0-----0-----0-----0--------------------|
A|------------------------------------------------------|
E|------------------------------------------------------|

* The first 7 is only played once
+1   March 16 2010, 11:11 pm by allstar21369 |
After trying to piece together the various tabs for this song I sort of put together my own...
It's mainly meant to be played with one guitar and includes some melody.



Rhythm Intro/Verse-
e|-------------------------------|
B|3---3---3------3---3-3-3---3---|
G|2---2---0------2---2-2-0---0---|
D|0---0---0------0---2-4-0---0---|
A|----0---x------2---0-0-0---x---|
E|--------3------------------3---|

Pre-Chorus
e|----------------------------------------------------------------------|
B|----------------------------------------------------------------------|
G|----------------------------------------------------------------------|
D|----0-------0---------2-------2---------------------------------------| x2
A|2-2---2-2-2---2---0-0---0-0-0---0-------5-----5---5-----5-----5---5---|
E|------------------------------------3-3---3-3---3---3-3---3-3---3-----|

e|----------------------------------------------------------------------|
B|----------------------------------------------------------------------|
G|----------------------------------------------------------------------|
D|----0-------0---------0-------0---------------------------------------|
A|2-2---2-2-2---2---4-4---4-4-4---4-------5-----5---5-----5-----5---5---|
E|------------------------------------3-3---3-3---3---3-3---3-3---3-----|

e|----------------------------------------------------------------------|
B|----------------------------------------------------------------------|
G|----------------------------------------------------------------------|
D|----0-------0---------2-------2---------------------------------------|
A|2-2---2-2-2---2---0-0---0-0-0---0-------5-----5---5-----5-----5---5---|
E|------------------------------------3-3---3-3---3---3-3---3-3---3-----|

Chorus-
e|---------------------------------------------0h2-------|
B|3------3------3---3---3--3-3-5p3---5p3---5p3-3---5p3---|
G|2------0------2---2---0--0-0-0-----0-----0---0---0-----|
D|0------0------0---2---0--0-0-0---0-0---0-0---0---0-----|
A|-------x------2---0---x--x-x-x---x-x---x-x---x---x-----|
E|-------3--------------3--3-3-3---3-3---3-3---3---3-----|

March 16 2010, 11:12 pm by allstar21369 |
For the above tab I meant x0223 for the second intro chord...
May 20 2010, 09:48 am by Indie rocker |
for the 3rd chord on the intro, try using a G5, sounds alot better
September 1 2010, 12:59 pm by Xaur Kun |
For the intro guitar 1 instead of playing the d (4th) string open u could play the b (2nd)string 3rd fret which gives u the same note
I just think its a bit easier but both are ryt
nice tab
October 4 2010, 01:33 pm by bmth13 |
1:50:

e|------10-----9-----7-----5--------|
B|----------------------------------|
G|----------------------------------|
D|--0-0----0-0---0-0---0-0----------|
A|----------------------------------|
E|----------------------------------|
October 4 2010, 01:34 pm by bmth13 |
oops. i meant ^^***1:45
+4   October 31 2010, 06:48 am by eviescott |
________ ________ ________ ________
| | | | | | | | | | | | | | | |
| | | | | | | | | | | | | | | |
|-------5--------5------|-3--------2--------2---|-----------------------|
|----3--------3--------3|-------3--------3-----3|-----------------------|
|-----------------------|-----------------------|------repeat-----------|
|-0--------0--------0---|----0--------0---------|-----------------------|
|-----------------------|-----------------------|-----------------------|
|-----------------------|-----------------------|-----------------------|
October 31 2010, 06:49 am by eviescott |
^ thats the introduction
November 2 2010, 04:57 am by Shred_That_Shiz |
nice tab bro
January 10 2012, 10:30 pm by DrewBernier |
I posted the chorus as You Had Me At Hello (ver6)
It's the part where you had the high notes but were
missing the low ones. And it's only for the first guitar
Please select
Post your    Comment OR Correction :

NOTE: If you want to post a tab,
please use [tab] [/tab] tag to do this.
© 2014 Ultimate-Guitar.com or its affiliates. All rights reserved     About | Help | Site Map | Link To Us | TOS | Privacy Policy | Advertise | Contact